Your One-Stop Source For
Music Lyrics
Bass and Guitar Tabs
and More...
Music Lyrics Bass and Guitar Tabs

 

The Tabs Are Below

Learn To Read Tab
Chords Handbook
Corrections & Additions
Get Official Tab
Pearl Jam tabs @ 911Tabs

 

PEARL JAM "IN HIDING" -BASS TAB

--------------------

Tune normal e a d g

 

Intro:

|-------------------------|

|--/7-5h7-7--7-5h7-----7--|

|------------------7-5----|

|-------------------------|

 

|---------------|

|--7-5h7-7--7---|

|---------------|

|---------------|

 

verse:

|---7---7-|---------|

|---------|---5---5-|

|-5---5---|---------|

|---------|-3---3---|

 

|---------------|

|---------------|

|-5-5-3-5-5-5-0-| x2

|---------------|

 

|---7---7-|---7---7-|

|---------|---------|

|-5---5---|-5---5---|

|---------|---------|

 

|---------------|-----------------|

|---------------|-----------------|

|-5-5-3-5-5-5-0-|-5-5-3-5-5-5-0-5-|

|---------------|-----------------|

 

bridge:

|-------|

|-------|

|-5-(5)-| x2

|-------|

 

|-----------------|

|---7-------------|

|-5---7---5-5---7-|

|-------5-----5---|

 

|-------|

|-------|

|-5-(5)-| x2

|-------|

 

Fill 1 (only before first chorus)

|-------------------|

|----12-14-12----12-|

|-12----------12----|

|-------------------|

 

Chorus

|------------------------------------------------------------------|

|*----------------------------------------------------------------*|

|*----------------------------------------------------------------*|

|--5-5-5-5-5-5-5-5-3-3-3-3-3-3-3-3-2-2-2-2-2-2-2-2-1-1-1-1-1-1-1-1-| x4

4th time put 8 e's (0 on e string)

 

Im in hiding.....

|---------------|---------------|

|---------------|---------------|

|-5-5-3-5-5-5-0-|-3-3-1-3-3-3---|

|---------------|-------------3-|

 

h = hammeron

p = pulloff

~ = vibrato

/ = slide up

\ = slide down

(X)= hold note (let ring)

 

Tabbed by Mark Linwood

 

Hint suggesstions or comments to (Rlinwood@powerup.com.au)

I will reply to all emails

 

 

Return to my to my Pearl Jam bass tabs page

The Tablature is Copyright its respective owners.

Sign Up For My Newsletter
Subscribe | Unsubscribe

Site Map | Disclaimer | Privacy Policy | Media Kit | Submissions/Corrections

Website © 2000-2014 mattsmusicpage.com. All rights reserved.

Legal & DMCA: Matt's Music Page has been providing lyrics and tabs in a legal way, paying royalties each year to a few organizations. Then, all lyrics and tabs were removed from the site. Now, there's a new owner to the site, which purchased it August 26, 2014, and he is in negotiation to obtain licensing from BMI at the moment. If you have a specific DMCA request -- please do not hesitate to contact me via the contact button on top. I will do my very best to keep this site fully legal.

Get our toolbar!