Your One-Stop Source For
Music Lyrics
Bass and Guitar Tabs
and More...
>Music Lyrics Bass and Guitar Tabs

 

The Tabs Are Below

Learn To Read Tab
Chords Handbook
Corrections & Additions
Get Official Tab
Pearl Jam tabs @ 911Tabs

 BAND: Pearl Jam

SONG: I Am Mine

Album: Riot Act

 

Tuning: low to high, E.A.D.G

* - let ring

(note he plays with his fingers)

 

 

Intro:

 

G:------------------------------------|

D:----guitar plays--------------------|

A:------------------------------------|

E:------------------------------------|

D D

G:-----------------|------------------|

D:-----------------|------------------|

A:-5*--------------|-5*---------------|

E:-----------------|------------------|

 

G:-----------------|

D:-----------------|

A:-0-0-0-0-0-0-0-0-|

E:-----------------|

 

 

Verse:

D F C G

G:--------------------------------------------------|

D:--------------3-3-3-3-3-3-------------------------|

A:-5-5-5-5-5-5--------------3-3-3-3-3-3-------------|

E:--------------------------------------3-3-3-3-3-3-|

F G D

G:------------|

D:------------|

A:---------5*-|

E:-1*--3*-----|

 

 

Chorus:

G C D

G:------------|

D:------------|

A:-----3*--5*-|

E:-3*---------|

 

 

Intro

 

Verse

 

Chorus

 

Bridge:

D G

G:-------------------------|

D:-------------------------|

A:-5-5-5-5-5-5-------------|

E:-------------3-3-3-3-3-3-|

 

Chorus til end

 

~ afan@nme.com

 

 

Return to my to my Pearl Jam bass tabs page

The Tablature is Copyright its respective owners.

Sign Up For My Newsletter
Subscribe | Unsubscribe

Site Map | Disclaimer | Privacy Policy | Media Kit | Submissions/Corrections

Website © 2000-2014 mattsmusicpage.com. All rights reserved.

Legal & DMCA: Matt's Music Page has been providing lyrics and tabs in a legal way, paying royalties each year to a few organizations. Then, all lyrics and tabs were removed from the site. Now, there's a new owner to the site, which purchased it August 26, 2014, and he is in negotiation to obtain licensing from BMI at the moment. If you have a specific DMCA request -- please do not hesitate to contact me via the contact button on top. I will do my very best to keep this site fully legal.

Get our toolbar!

 

Kizumonogatari LTD Edition Part 2 Japan Anime Music LP Vinyl Record Nekketsu NEW
$72.99
Kizumonogatari LTD Edition Part 2 Japan Anime Music LP Vinyl Record Nekketsu NEW picture


Christopher Williams Promotional Vinyl Record Album GIANT Lonely & Dance4Me
$9.99
Christopher Williams Promotional Vinyl Record Album GIANT Lonely & Dance4Me picture


vintage Record Case Holds 45 Vinyl Records
$14.99
vintage Record Case Holds 45 Vinyl Records picture


vintage disk-go-case 45 vinyl records Pink Plastic
$19.99
vintage disk-go-case 45 vinyl records Pink Plastic picture


RARE STAR WARS VINYL RECORD I MOVIE THEME 1977 MADE IN EL SALVADOR
$40.0
RARE STAR WARS VINYL RECORD I MOVIE THEME 1977 MADE IN EL SALVADOR picture