Your One-Stop Source For
Music Lyrics
Bass and Guitar Tabs
and More...
Music Lyrics Bass and Guitar Tabs

 

The Tabs Are Below

Learn To Read Tab
Chords Handbook
Corrections & Additions
Get Official Tab
Pearl Jam tabs @ 911Tabs

 

From: dreims@skynet.net.au (Torch)

To: dwm3@po.cwru.edu

Subject: Habbit Pearl Jam

Date: Fri, 13 Dec

 

 

well this is my shot at habbit

 

here are the parts, you can work out where they go with a quick listen

enjo

 

g-----------------

d-----------------

a--7----7--6666666

e----5------------

 

 

 

g---3--3--777-3-33-777

d---------------------

a---------------------

e---------------------

 

 

g-----------------

d-----------------

a--7----7--6666666

e----5------------

 

 

 

g---3--3--777-3-33-777

d---------------------

a---------------------

e---------------------

 

 

g-----------------------------

d-----------------------------

a--8-88-----7--7777------------

e--------77-----------------

 

g----------------7-----6-----------

d----------------------------------

a--8------7--------------8------5---

e---------------------------------

 

hope this helps

 

 

Return to my to my Pearl Jam bass tabs page

The Tablature is Copyright its respective owners.

Sign Up For My Newsletter
Subscribe | Unsubscribe

Site Map | Disclaimer | Privacy Policy | Media Kit | Submissions/Corrections

Website © 2000-2014 mattsmusicpage.com. All rights reserved.

Legal & DMCA: Matt's Music Page has been providing lyrics and tabs in a legal way, paying royalties each year to a few organizations. Then, all lyrics and tabs were removed from the site. Now, there's a new owner to the site, which purchased it August 26, 2014, and he is in negotiation to obtain licensing from BMI at the moment. If you have a specific DMCA request -- please do not hesitate to contact me via the contact button on top. I will do my very best to keep this site fully legal.

Get our toolbar!