Your One-Stop Source For
Music Lyrics
Bass and Guitar Tabs
and More...
>Music Lyrics Bass and Guitar Tabs

 

The Tabs Are Below

Learn To Read Tab
Chords Handbook
Corrections & Additions
Get Official Tab
Pearl Jam tabs @ 911Tabs

 

Betterman

 

E :------------------|---------------------|-----0-- 3|---------|

B :---3---0----0-3---|0---0-/5----5---0---0|---0---0 ||---6-6-6-|

G :---2-----2----2---|--2---------4-----4--|-4------*||---5-5-5-|

D :------------------|---------------------|--------*||---------|

A :------------------|---------------------|-------- ||---------|

E :------------------|---------------------|-------- ||---------|

 

 

The bass part can be played ont he guitar by playing an octive

G :------------------|---------------------|-------- 3|---------|

D :------------------|---------------------|--------*||---------|

A :------------------|---------------------|--------*||---------|

E :12---------12-----|---------14----------|-------- ||15-------|

 

=============================================================================

 

E :------------- 1|2----|---------2--------|---4---------4--|

B :6----8-8-8-8- ||3---0|-----0---3---0---0|---5-0---0---5-0|

G :5----7-7-7-7-*||2----|---2-----2-----2--|---4---4---4-4--|

D :-------------*||-----|------------------|----------------|

A :------------- ||-----|------------------|----------------|

E :------------- ||-----|------------------|----------------|

Im not sure about this part

 

lower than the bass (subtract 10 from the number and play there)

G :------------- 1|-----|------------------|----------------|

D :-------------*||-----|------------------|----------------|

A :-------------*||-----|------------------|----------------|

E :--17--------- ||-----|13----------------|----------------|

 

=============================================================================

 

E :----------------|

B :---0------------|

G :-4---4----------|

D :----------------|

A :----------------|

E :----------------|

 

Brought to you by Wildt84271

Questions comments E-mail me.

 

 

 

Return to my to my Pearl Jam tabs page

The Tablature is Copyright its respective owners.

Sign Up For My Newsletter
Subscribe | Unsubscribe

Site Map | Disclaimer | Privacy Policy | Media Kit | Submissions/Corrections

Website © 2000-2014 mattsmusicpage.com. All rights reserved.

Legal & DMCA: Matt's Music Page has been providing lyrics and tabs in a legal way, paying royalties each year to a few organizations. Then, all lyrics and tabs were removed from the site. Now, there's a new owner to the site, which purchased it August 26, 2014, and he is in negotiation to obtain licensing from BMI at the moment. If you have a specific DMCA request -- please do not hesitate to contact me via the contact button on top. I will do my very best to keep this site fully legal.

Get our toolbar!

 

1967 Press Photo Charles Anthony, Lyric Tenor with the Metropolitan Opera.
$19.88
1967 Press Photo Charles Anthony, Lyric Tenor with the Metropolitan Opera. picture


Old Heidelberg, Alt Heidelberg, H. Hoffmann pinx. Bridge, bruecke, Play lyrics
$7.51
Old Heidelberg, Alt Heidelberg, H. Hoffmann pinx. Bridge, bruecke, Play lyrics picture


STRANGERS IN PARADISE: LYRICS & POEMS (1999 Series) #1 Near Mint Comics Book
$1.6
STRANGERS IN PARADISE: LYRICS & POEMS (1999 Series) #1 Near Mint Comics Book picture


OLD LARGE HISTORIC PHOTO OF ENDICOTT NEW YORK, VIEW OF THE LYRIC THEATER c1910
$6.07
OLD LARGE HISTORIC PHOTO OF ENDICOTT NEW YORK, VIEW OF THE LYRIC THEATER c1910 picture


1937 Press Photo Joe Du Mond lyric baritone, poet & narrator on NBC
$22.88
1937 Press Photo Joe Du Mond lyric baritone, poet & narrator on NBC picture