Your One-Stop Source For
Music Lyrics
Bass and Guitar Tabs
and More...
Music Lyrics Bass and Guitar Tabs

 

The Tabs Are Below

Learn To Read Tab
Chords Handbook
Corrections & Additions
Get Official Tab
Pearl Jam tabs @ 911Tabs

 

Believe You Me

Pearl Jam

 

 

1 -------3----------3---------------3----------3---------------

2--------3----------3---------------3----------3---------------

3----------4----------4---------------4-----------4------------

4--------------------------------------------------------------

5--------------------------------3------------3----------------

6-----3--------3--3------------3-------------------------------

 

1-------3-----------3---------------3------------------3------

2-------3-----------3---------------3------------------3------

3----------4------------4----------------4-----------------4--

4-------------------------------------------------------------

5-3------------------------------3-----------------3----------

6----3---------3--3----------3--------------------------------

 

 

 

People walking people talking

people waiting for a second coming

 

 

 

G (334553) C (010230) G

 

Believe you me I do believe Believe you me

 

C

I do believe

 

Am (0122000) C G

 

But I dont want to Hear no more Today

 

And I don't want to Say no more Today

 

I don't want to Hear No more

 

 

Return to my to my Pearl Jam tabs page

The Tablature is Copyright its respective owners.

Sign Up For My Newsletter
Subscribe | Unsubscribe

Site Map | Disclaimer | Privacy Policy | Media Kit | Submissions/Corrections

Website © 2000-2014 mattsmusicpage.com. All rights reserved.

Legal & DMCA: Matt's Music Page has been providing lyrics and tabs in a legal way, paying royalties each year to a few organizations. Then, all lyrics and tabs were removed from the site. Now, there's a new owner to the site, which purchased it August 26, 2014, and he is in negotiation to obtain licensing from BMI at the moment. If you have a specific DMCA request -- please do not hesitate to contact me via the contact button on top. I will do my very best to keep this site fully legal.

Get our toolbar!