Your One-Stop Source For
Music Lyrics
Bass and Guitar Tabs
and More...
Music Lyrics Bass and Guitar Tabs

 

The Tabs Are Below

Learn To Read Tab
Chords Handbook
Corrections & Additions
Get Official Tab
Pearl Jam tabs @ 911Tabs

 

Brother

Pearl Jam

Tabbed by Nick Key (nkey@ionet.net)

 

Intro/Chorus

 

Fig. 1 4x

|-------------------------------|

|-------------------------------|

|-------------------------------|

|-4-44-4-44-4-4--0-00-0-00-0-0--|

 

Verse:

Fig. 1 - 8x: add the slide after every fourth time.

|----------| |----|

|----------| |----|

|----------| |----|

|--4--2-4--| |-//-|

 

Play verse 2x, then:

 

Pre-chorus:

4x

|---------------|

|---------------|

|---------------|

|-2-22-2-22-00--|

 

Second verse:

 

Play Fig. 1 8x, then this variation:

Fig. 2 - 2x

|---------------------------|

|---------------------------|

|---------------------------|

|--4--2-4/7-7-7--4--2-4\2-2-|

 

Play pre-chorus eight (8) times, then chorus four (4) times.

 

Then play this:

|------------------------|

|------------------------|

|------------------------|

|-4-44-4-44-4-4--0-0-0---|

 

 

 

 

 

 

 

Slow part:

3x

|------------------------| |-------| |-/11----------------|

|---------/6-4------/6-4-| |-------| |--------------------|

|-4--2--2------2--2------| |-------| |--------------------|

|------------------------| |-4--/7-| |------4--/7--7-77-7-|

 

Solo:

It's really pretty different from this, but this works.

 

4x

|------------------------------------| |-------------------|

|------------------------------------| |-------------------|

|------------------------------------| |-------------------|

|--4-44-44-2-(4)/7-7--4-44-44-2-4-2--| |-4-44-44-2-(4)/7-7-|

 

Play pre-chorus three (3) times.

 

Play chorus nine (9) times (there's a fadeout during this).

Then end with this:

 

|--------|

|--------|

|--------|

|-2-2/0--|

 

Return to my to my Pearl Jam bass tabs page

The Tablature is Copyright its respective owners.

Sign Up For My Newsletter
Subscribe | Unsubscribe

Site Map | Disclaimer | Privacy Policy | Media Kit | Submissions/Corrections

Website © 2000-2014 mattsmusicpage.com. All rights reserved.

Get our toolbar!