Your One-Stop Source For
Music Lyrics
Bass and Guitar Tabs
and More...
Music Lyrics Bass and Guitar Tabs

 

The Tabs Are Below

Learn To Read Tab
Chords Handbook
Corrections & Additions
Get Official Tab
Pearl Jam tabs @ 911Tabs

 

All Those Yesterdays

Pearl Jam

 

 

Riff #1

E-------------------------------------------------------

A--------------1------------------------1---------------

G--------2------------------------------1---------------

D---3---------------3-p-0----------2---------2----------

A------------------------------3------------------------

E-------------------------------------------------------

 

This is played throughout the verse.

 

Riff #2

 

"Maybe it'll wash away....

E----------1-----------3------------------------------------

B------3-------------5---5----------1----------------1------

G---3--------3-3 > 5-------------2-------------------1------

D-----------------------------3---------3-p-0-----2-----2---

A----------------------------------------------3------------

E-----------------------------------------------------------

 

"All those yesterdays..............."

(F5)

E---------------1---------------------3----------------8----

B---------3-----------------------5---------5----------10---

G---3------------------3-3> 5--------------------------10---

D------------------------------------------------------10---

A-------------------------------------------------------8---

E-----------------------------------------------------------

 

On the next part, one guitar plays riff # 1

while the other alternates between F5 and E5.

F5 E5

------------ -----------

------10--- -----9-----

------10--- -----9-----

------10--- -----9-----

------8---- -----7-----

----------- -----------

 

What (F5)are you running (E5)from taking

(F5)pills to get (E5)along creating

(F5)walls to call(E5)your own.(F5) (E5)

So (F5)no one catches (E5)you drifting

(F5)off and doing (E5)all the things

(F5)that we (E5)all (F5)do.

(E5)

 

 

Riff #2

"And now wash away....all those yesterdays."

 

Riff #1 during:

"All those yesterdays, all those yesterdays, all those yesterdays.

All those paper plates, all those yesterdays, all those yesterdays."

 

Riff #3

This riff is played after the last echo of

"all those yesterdays" till the end of the song.

It's played with a little distortion at first

then a lot when Ed starts singing "There's still time for escape."

 

E--------------------------------------------

B--------------------------------------------

G---------2--------------3-------------------

D---------------------3----------------------

A------3-------3-3>5---------5v--------------

E---1---------------------------4v--4-----0--

 

REPEAT

 

 

Slight correction:

During the last riff until the end of the song, the rhythm alternates between F, Bb(5), and G#

F Bb(5) G#

(E)----1---- ----1---- ----3-----

(B)----1---- ----3---- ----3-----

(G)----2---- ----3---- ----4-----

(D)----3---- ----3---- ----5-----

(A)----3---- ----1---- ----5-----

(E)----1---- --------- ----3-----

 

SOLO

(E)--------------------------------------------------------

(B)----------------9-----9-9^--6--6-6-6--------------------

(G)-(s)10--10--10----10------------------5--8--10--10-10---

(D)--------------------------------------------------------

(A)--------------------------------------------------------

(E)--------------------------------------------------------

 

 

(E)--------------------------------------------------------

(B)-----9-9^--6-6--9-----4--6->-9-6----4-6->-9-------------

(G)--10---------------5--------------5----------10--10--10-

(D)--------------------------------------------------------

(A)--------------------------------------------------------

(E)--------------------------------------------------------

 

 

(E)--------------------------------------------------------

(B)--9----9-9^--6-6-9----4-6->-9-6----4-6->-9--6-6-9-9-->-13

(G)----10--------------5------------5----------------------

(D)--------------------------------------------------------

(A)--------------------------------------------------------

(E)--------------------------------------------------------

 

the eight times are played quickly for both notes

(E)--------------------------------------------------------

(B)-13-(8 times)-->--16-(8 times)-----4-6-9-6-----4-6-9-----

(G)-------------------------------5-----------5------------

(D)--------------------------------------------------------

(A)--------------------------------------------------------

(E)--------------------------------------------------------

 

 

(E)--------------------------------------------------------

(B)----------9----9-9^-6-6-9----4-6-9-6----4-6-9--6-6-9-9->

(G)-10-10-10---10-------------5----------5-----------------

(D)--------------------------------------------------------

(A)--------------------------------------------------------

(E)--------------------------------------------------------

 

(song fades)

(E)--------------------------------------------------------

(B)-13-(8 times)--16-(8 times)--18-(6 times)-18^--16--18---

(G)--------------------------------------------------------

(D)--------------------------------------------------------

(A)--------------------------------------------------------

(E)--------------------------------------------------------

 

Key:

> slide

^ one step bend and release

 

--------------------------------------------------------------------------------

All Those Yesterdays

Pearl Jam

 

F tab C7 tab

e:--------------|--------------|

B:--------1-----|--------------|

G:-----2--------|--------3-----|

D:--3--------3--|-----2--------|

A:--------------|--3--------3--|

E:--------------|--------------|

 

Intro: play (F C7) 4 times, then F

 

Verses:

 

C7 F C7 F

Don't you think you oughtta rest?

 

C7 F C7 F

Don't you think you oughtta lay your head down?

 

C7 F C7 F

Don't you think you want to sleep?

 

C7 F C7

Don't you think you oughtta lay your head down?

 

F C7

Tonight

 

Don't you think you've done enough?

Don't you think you've got enough? Well maybe

You don't think there's time to stop

Time enough for you to lay your head down

Tonight

 

Let it wash away

All those yesterdays

What are you running from?

Taking pills to get along

Creating walls to call your own

So no one catches you?

Drifing off and doing all the things

That we all do

Let them wash away

All those yesterdays

All those ...

You got time...

You got time to escape

There still time...

It's no crime to escape

There still time to escape

It's no crime to escape

All those yesterdays.

 

 

Return to my to my Pearl Jam tabs page

The Tablature is Copyright its respective owners.

Sign Up For My Newsletter
Subscribe | Unsubscribe

Site Map | Disclaimer | Privacy Policy | Media Kit | Submissions/Corrections

Website © 2000-2014 mattsmusicpage.com. All rights reserved.

Legal & DMCA: Matt's Music Page has been providing lyrics and tabs in a legal way, paying royalties each year to a few organizations. Then, all lyrics and tabs were removed from the site. Now, there's a new owner to the site, which purchased it August 26, 2014, and he is in negotiation to obtain licensing from BMI at the moment. If you have a specific DMCA request -- please do not hesitate to contact me via the contact button on top. I will do my very best to keep this site fully legal.

Get our toolbar!