Your One-Stop Source For
Music Lyrics
Bass and Guitar Tabs
and More...
>Music Lyrics Bass and Guitar Tabs

 

The Panic At the Disco Guitar Tablature Is Below

Learn To Read Tab
Chords Handbook
Corrections & Additions
Get Official Tab
Panic tabs @ 911Tabs

that green gentleman (things have changed)

----------------------------------------------

 

 

TUNING: (D G C F A D)

 

 

__________________________________________________________________________________

A# D# Gm F

x 3 2 0 1 0 x x 3 2 1 1 x 0 2 2 1 0 3 2 0 0 3 3

Dm Csus2 F# G#

0 2 2 0 0 0 x x 0 2 3 0 4 6 6 5 4 4 6 8 8 7 6 6

 

F6add11

x 2 0 0 1 0

__________________________________________________________________________________

 

 

 

A# / D# / A# / D#

 

 

.....

0:04

.....

 

 

D||-----------------------||

A||---8---8---8---8-------||

F||-9---9---9---9---9~----||

C||-----------------------||

G||-----------------------||

D||-----------------------||

 

 

 

A# D#

Things are shaping up to be pretty odd

A# D#

Little deaths in musical beds

Gm F D#

So it seems I'm someone I've never met

 

 

.....

0:20

.....

 

 

D||-----------------------------------------||

A||-----------------------------------------||

F||-----------------------------------------|| {REPEAT 2x)

C||--------------------------------------10-||

G||--10--------10h12--x-12--10-----10h12----||

D||---8--8--8---------x--------12-----------||

.PM. .PM.

 

 

 

A# D#

You will only hear these elegant crimes

A# D#

Fall on your ears from criminal dimes

Gm F D#

They spill unfound from a pretty mouth

 

 

.....

0:26

.....

D||-------------------------------------------------------------||

A||-------------------------------------------------------------||

F||--------------------12---------------------------------------||

C||--/14~---14---12-12-12----10-10--10h12p10-10-10--10h12p10----||

G||--------------10-10-10-----8--8---8--------8--8---8----------||

D||-------------------------------------------------------------||

..PM.. ..PM.. ..PM..

 

 

.....

0:32

.....

 

D||------------|-----------------------||

A||-----8------|---------10~-----------||

F||--9-----9~--|--9/7------------10----||

C||------------|-----------------------||

G||------------|-----------------------||

D||------------|-----------------------||

.PM.

 

 

 

Dm

Everybody gets there and everybody gets their

Csus2

And Everybody gets their way

 

 

.....

0:36

.....

 

Gtr.1

 

D||-----------------------------------------||

A||-----------------------------------------||

F||-----------------------------------------|| {REPEAT 2x)

C||--------------------------------------10-||

G||--10--------10h12--x-12--10-----10h12----||

D||---8--8--8---------x--------12-----------||

.PM.

 

.....

0:36

.....

 

Gtr2

D||--------------------------------||

A||-----8-----5--------------5-----||

F||---5---5-7---7-5------5h7-------||

C||-5----------------5h7-----------||

G||--------------------------------||

D||--------------------------------||

 

 

 

.....

0:41

.....

 

D||--------------------------|----------------------------------------||

A||--------------------------|----------------------------------------||

F||-----9~------------10-----|----------------------------------------||

C||----10~--------12------12-|-------------------------------------10-||

G||-0---------12-------------|-10--------10h12--x-12--10-----10h12----||

D||--------------------------|--8--8--8---------x--------12-----------||

.PM. .PM. .PM.

 

 

Gm

I never said I missed her when everybody kissed her

Csus2

Now I'm the only one to blame

 

 

 

 

.....

0:46

.....

 

Gtr.1

D||----------------------------------------||

A||-----8-----5----------------------------||

F||---5---5-7---7-5-------5-7--8-8-8-5-----||

C||-5-----------------6-8--------------6~--||

G||----------------------------------------||

D||----------------------------------------||

 

 

 

 

.....

0:49

.....

 

Gtr.2

D||--------4------|-----6-----------||

A||-----------4---|--------6--------||

F||---------------|-----------7~----||

C||---------------|-----------------||

G||-----6---------|-----------------||

D||--4------------|-/6--------------||

 

 

 

 

 

.................................................

 

A# Dm D#

Things have changed for me, and that's okay

Csus2 F

I feel the same, I'm on my way, and I say

A# F6add11 Gm

Things have changed for me, and that's okay

 

.................................................

 

 

A# D#

I want to go where everyone goes,

A# D#

I want to know what everyone knows

Gm F D#

I want to go where everyone feels the same

 

 

A# D#

I never said I'd leave the city,

A# D#

I never said I'd leave this town.

Gm F D#

A falling out we won't tiptoe about.

 

 

 

Dm

Everybody gets there and everybody gets their

Csus2

And Everybody gets their way

 

 

Gm

I never said I missed her when everybody kissed her

Csus2

Now I'm the only one to blame

 

 

 

*A# / D# / F# / G#

 

 

 

.................................................

 

A# Dm D#

Things have changed for me, and that's okay

Csus2 F

I feel the same, I'm on my way, and I say

A# F6add11 Gm Csus2

Things have changed for me, and that's okay

F

I feel the same, and I say

A# F6add11 Gm Csus2

Things have changed for me, and that's okay

F

I feel the same, and I say

A# F6add11 Gm Csus2

Things have changed for me, and that's okay

F

I feel the same, and I say

A# F6add11 Gm Csus2

Things have changed for me, and that's okay

F

I'm on my way, and I say

.................................................

Return to my Panic At the Disco Tablature page

The Tablature is Copyright its respective owners.

The creator of this page is in no way affiliated with Panic At the Disco. The creator of this page is simply a fan that made a page about Panic At the Disco Tablature and more.

Sign Up For My Newsletter
Subscribe | Unsubscribe

Site Map | Disclaimer | Privacy Policy | Media Kit | Submissions/Corrections

Website © 2000-2014 mattsmusicpage.com. All rights reserved.

Legal & DMCA: Matt's Music Page has been providing lyrics and tabs in a legal way, paying royalties each year to a few organizations. Then, all lyrics and tabs were removed from the site. Now, there's a new owner to the site, which purchased it August 26, 2014, and he is in negotiation to obtain licensing from BMI at the moment. If you have a specific DMCA request -- please do not hesitate to contact me via the contact button on top. I will do my very best to keep this site fully legal.

Get our toolbar!

 

® Elvis Presley Figure with Bars & Vinyl Record Stage
$23.99
® Elvis Presley Figure with Bars & Vinyl Record Stage picture


THE LONGINES SYMPHONETTE "SENTIMENTAL JOURNEY" VINTAGE VINYL ALBUM RECORD BOWL
$19.99
 THE LONGINES SYMPHONETTE


African Ghana Medley Vinyl Phono Record Beads (8mm) Ghana
$15.0
African Ghana Medley Vinyl Phono Record Beads (8mm)  Ghana picture


African Yellow Vinyl Phono Record Beads (6mm) Ghana
$12.0
African Yellow Vinyl Phono Record Beads (6mm)  Ghana picture


African Vintage Vinyl Phono Record Beads (7mm - Set of 4) Ghana
$69.0
African Vintage Vinyl Phono Record Beads (7mm - Set of 4)  Ghana picture