Your One-Stop Source For
Music Lyrics
Bass and Guitar Tabs
and More...
Music Lyrics Bass and Guitar Tabs

 

The Panic At the Disco Guitar Tablature Is Below

Learn To Read Tab
Chords Handbook
Corrections & Additions
Get Official Tab
Panic tabs @ 911Tabs

she's a handsome woman

--------------------------

 

 

TUNING: (D G C F A D)

 

 

_____________________________________________________________________________

G# F# C#sus2 E

6 8 8 7 6 6 4 6 6 5 4 4 x 6 8 8 6 6 x x 4 3 2 2

 

G#m Bsus2

x 1 3 3 2 1 x 4 6 6 4 4

_____________________________________________________________________________

 

 

.....

0:05

.....

 

 

|-----------------------------||

|-----------------------------||

|-----------------------------|| {Repeat}

|-3---3---3---2---------3-----||

|-1---4---1---1---4-3-2-1-----||

|-----------------------------||

 

 

 

.....

0:22

.....

|-2---2--|--1------4--|--4---4---------------||

|-2---2--|--2------4--|--4---4-----4---------||

|-3---3--|--3------6--|--6---5-------3-------|| {Repeat}

|-4---4--|--3------6--|--6---6---------4-----||

|--------|--1------4--|--4---6-------------6-||

|--------|------------|------4---------------||

 

 

 

E

Innocence

G#m Bsus2

Sunk the glow and drowned in covers

Bsus2 F#

send for all your absent lovers things

 

 

E

Sheepish Wolves

G#m Bsus2

Looking lived in eating buttons

Bsus2 F#

Wink, just don't put your teeth on me

 

 

 

{Intro Riff}

 

 

E

Accidents

G#m Bsus2

Let the evening in the backdoor

Bsus2 F#

filled the room ceiling to the floor

 

 

E

Beat backbones

G#m Bsus2

Grazed the poem and made it strange

Bsus2 F#

I wasn't born to be a skeleton

 

 

 

G# / F# / C#sus2 {Repeat 2x}

 

 

 

.....

1:13

.....

 

 

D||-------------------|-------------------------------------||

A||-------------------|---------------9---------------------||

F||--8pbr8---6--------|--6/10------10---10----8~---8/6------||

C||--------------8----|---------------------------------8~--||

G||-------------------|-------------------------------------||

D||-------------------|-------------------------------------||

 

 

TR.

D||----------|-----------------------------||

A||--11~//---|-----------------------------||

F||----------|--8~--10~---8----6-6-6-------||

C||----------|-------------------------8~--||

G||----------|-----------------------------||

D||----------|-----------------------------||

 

 

.........................................

 

G#

Go on

F# C#sus2

grab your hat and fetch a camera {Repeat 2x}

G# F# C#sus2

Go on, film the world before it happens

 

.........................................

 

 

E

Jealous orchard

G#m Bsus2

The sky is falling off the ceiling

Bsus2 F#

while I'm tucking fibs into a cookie jar

 

 

E

Reverie

G#m Bsus2

It's useless searching in the cupboards

Bsus2 F#

when everything you have is on your back

 

Return to my Panic At the Disco Tablature page

The Tablature is Copyright its respective owners.

The creator of this page is in no way affiliated with Panic At the Disco. The creator of this page is simply a fan that made a page about Panic At the Disco Tablature and more.

Sign Up For My Newsletter
Subscribe | Unsubscribe

Site Map | Disclaimer | Privacy Policy | Media Kit | Submissions/Corrections

Website © 2000-2014 mattsmusicpage.com. All rights reserved.

Legal & DMCA: Matt's Music Page has been providing lyrics and tabs in a legal way, paying royalties each year to a few organizations. Then, all lyrics and tabs were removed from the site. Now, there's a new owner to the site, which purchased it August 26, 2014, and he is in negotiation to obtain licensing from BMI at the moment. If you have a specific DMCA request -- please do not hesitate to contact me via the contact button on top. I will do my very best to keep this site fully legal.

Get our toolbar!