Your One-Stop Source For
Music Lyrics
Bass and Guitar Tabs
and More...
Music Lyrics Bass and Guitar Tabs

 

The Panic At the Disco Guitar Tablature Is Below

Learn To Read Tab
Chords Handbook
Corrections & Additions
Get Official Tab
Panic tabs @ 911Tabs

pas de cheval

-----------------

 

 

TUNING: (E A D G B E)

 

 

_____________________________________________________________________________

 

E B Esus4/A Dsus2

0 2 2 1 0 0 x 2 4 4 4 2 x 0 2 2 0 0 x x 0 2 3 0

 

Bb F#m

x 1 3 3 3 1 2 4 4 2 2 2

_____________________________________________________________________________

 

.....

0:01

.....

 

 

E||--------------0----||

B||-----0-----0--0----||

G||-0h1---0h1----1----||

D||--------------2----||

A||--------------2----||

E||--------------0----||

 

 

 

 

E B

Oh, little did she know

Esus4/A

Couldn't let me go

E

Already a part of her

 

 

 

E B

So, often do I need

Esus4/A

People in between

E

That just can't get a hold of it

 

 

 

B

So we'll just sing it for them

B / Bb / Esus4/A

Ahhh

E

Yeah, we'll just sing it for them

 

(Just can't get a hold of it)

B

So we'll just sing it for them

B / Bb / Esus4/A

Ahhh

 

Yeah, we'll just sing it

 

 

 

.......................................................

 

E Dsus2 Esus4/A

It's the greatest thing that's yet to have happened

Esus4/A F#m E

Imagine knowing me

E Dsus2 Esus4/A

It's the greatest thing you'd ever imagine

B Esus4/A E

But you'll never know until you're there

B E

No, you'll never know until you're there

 

.......................................................

 

 

E B

Slow, leave walking to the world

Esus4/A

Give your feet a chance

E

They'll do all the thinking

 

 

 

E B

Toast, high until they find

Esus4/A

Less pathetic wine

E

Until they get a better blend

 

 

B

And we'll just drink it for them

B / Bb / Esus4/A

Ahhh

E

Yeah we'll just drink it for them

 

(Until they get a better plan)

B

So we'll just drink it for them

B / Bb / Esus4/A

Yeah we'll just drink it

 

 

.......................................................

 

E Dsus2 Esus4/A

It's the greatest thing that's yet to have happened

Esus4/A F#m E

Imagine knowing me

E Dsus2 Esus4/A

It's the greatest thing you'd ever imagine

B Esus4/A E

But you'll never know until you're there

B E

No, you'll never know until you're there

 

.......................................................

 

 

.....

1:45

.....

 

E||------------9-7--9h11b12r11-9--------------------------------------------||

B||--------7-9-------------------12-10-8b10r=8-7----------------------------||

G||-/9-9-9---------------------------------------9~-7--7h9p7p0--------------||

D||-----------------------------------------------------------9--7p5--------||

A||------------------------------------------------------------------7------||

E||--------------------------------------------------------------------7----||

 

E||------------9-7--9h11b12r11-9----------------------------------||

B||--------7-9-------------------12-10-8b10r=8-7------------------||

G||------/9---------------------------------------9-7--6--7-9-----||

D||-------------------------------------------------------~----7--||

A||---------------------------------------------------------------||

E||-0-0-----------------------------------------------------------||

 

 

 

.......................................................

 

E Dsus2 Esus4/A

It's the greatest thing that's yet to have happened

Esus4/A F#m E

Imagine knowing me

E Dsus2 Esus4/A

It's the greatest thing you'd ever imagine

B Esus4/A E

But you'll never know until you're there

B E

No, you'll never know until you're there

 

.......................................................

 

 

Return to my Panic At the Disco Tablature page

The Tablature is Copyright its respective owners.

The creator of this page is in no way affiliated with Panic At the Disco. The creator of this page is simply a fan that made a page about Panic At the Disco Tablature and more.

Sign Up For My Newsletter
Subscribe | Unsubscribe

Site Map | Disclaimer | Privacy Policy | Media Kit | Submissions/Corrections

Website © 2000-2014 mattsmusicpage.com. All rights reserved.

Legal & DMCA: Matt's Music Page has been providing lyrics and tabs in a legal way, paying royalties each year to a few organizations. Then, all lyrics and tabs were removed from the site. Now, there's a new owner to the site, which purchased it August 26, 2014, and he is in negotiation to obtain licensing from BMI at the moment. If you have a specific DMCA request -- please do not hesitate to contact me via the contact button on top. I will do my very best to keep this site fully legal.

Get our toolbar!