Your One-Stop Source For
Music Lyrics
Bass and Guitar Tabs
and More...
>Music Lyrics Bass and Guitar Tabs

 

The Panic At the Disco Guitar Tablature Is Below

Learn To Read Tab
Chords Handbook
Corrections & Additions
Get Official Tab
Panic tabs @ 911Tabs

Panic! At The Disco

Nails for Breakfast, Tacks for Snacks (Album Version)

A Fever You Can't Sweat Out

Drop D Tuning

Tabbed by : Earwood

 

 

Intro

(Delay)

|--------13\-12/-13---------13-12---------13\-12/-13---------13-17----|

|----/15----------------/15-----------/15----------------/15----------|

|-14-----------------14------------14-----------------14--------------|

|---------------------------------------------------------------------|

|---------------------------------------------------------------------|

|---------------------------------------------------------------------|

 

 

Verse

(Live he uses delay and hits only the root note.)

|--------------------------------------------------------------------|

|--------------------------------------------------------------------|

|---------2-2-2-2-------------------------2-2-2-2--------------------|

|-0-0-0-0-2-2-2-2-2-2-2-2-3-3-3-3-0-0-0-0-2-2-2-2-2-2-2-2-3-3-3-3----|

|-0-0-0-0-0-0-0-0-2-2-2-2-3-3-3-3-0-0-0-0-0-0-0-0-2-2-2-2-3-3-3-3----|

|-0-0-0-0---------2-2-2-2-3-3-3-3-0-0-0-0---------2-2-2-2-3-3-3-3----|

 

 

PreChorus(Delay)

(The hospice is…)

|-3---------------------5---5-------------3h5p3---3h5p3---3h5p3-------------------1-|

|-3-5p3---5p3---5p3-----6---6---5---------3-----3-3-------3-----5/6-5-6-5-6-5-6---4-|

|-3-3---3-3---3-3-------5---5-----5-------3-------3-----3-3---------------------5-3-|

|-5-5-----5-----5---5/7---5---3-----3-3/5-5-------5-------5-----------------------1-|

|-x-------------------------------------------------------------------------------1-|

|-5-------------------------------------------------------------------------------1-|

 

 

Chorus

|-----------------------------------------------------------------------|

|-----------------------------------------------------------------------|

|-----------------------------------------------------------------------|

|-0-0--0h3-3-3--3/-8-8-8-8\-5-5--5\--0-0--0h3-3-3--3/-8--8-8-8\-5-5--5\-|

|-0-0--0h3-3-3--3/-8-8-8-8\-5-5--5\--0-0--0h3-3-3--3/-8--8-8-8\-5-5--5\-|

|-0-0--0h3-3-3--3/-8-8-8-8\-5-5--5\--0-0--0h3-3-3--3/-8--8-8-8\-5-5--5\-|

 

 

(Delay)

|--------13\-12/-13---------13-12---------13\-12/-13---------13-17----|

|----/15----------------/15-----------/15----------------/15----------|

|-14-----------------14------------14-----------------14--------------|

|---------------------------------------------------------------------|

|---------------------------------------------------------------------|

|---------------------------------------------------------------------|

 

 

Verse

|---------------------------------------------------------------------|

|---------------------------------------------------------------------|

|---------2-2-2-2-------------------------2-2-2-2-----------------7---|

|-0-0-0-0-2-2-2-2-2-2-2-2-3-3-3-3-0-0-0-0-2-2-2-2-2-2-2-2-3-3-3-3-5---|

|-0-0-0-0-0-0-0-0-2-2-2-2-3-3-3-3-0-0-0-0-0-0-0-0-2-2-2-2-3-3-3-3-5---|

|-0-0-0-0---------2-2-2-2-3-3-3-3-0-0-0-0---------2-2-2-2-3-3-3-3-5---|

 

 

Chorus

|-----------------------------------------------------------------------|

|-----------------------------------------------------------------------|

|-----------------------------------------------------------------------|

|-0-0--0h3-3-3--3/-8-8-8-8\-5-5--5\--0-0--0h3-3-3--3/-8--8-8-8\-5-5--5\-|

|-0-0--0h3-3-3--3/-8-8-8-8\-5-5--5\--0-0--0h3-3-3--3/-8--8-8-8\-5-5--5\-|

|-0-0--0h3-3-3--3/-8-8-8-8\-5-5--5\--0-0--0h3-3-3--3/-8--8-8-8\-5-5--5\-|

 

|---------------------------------------------------------------------|

|---------------------------------------------------------------------|

|---------------------------------------------------------------------|

|-0-0--0h3-3-3--3/-8-8-8-8\-1-1-1-1-0-0--0h3-3-3--3/-8-8-8-8\-5-5--5\-|

|-0-0--0h3-3-3--3/-8-8-8-8\-1-1-1-1-0-0--0h3-3-3--3/-8-8-8-8\-5-5--5\-|

|-0-0--0h3-3-3--3/-8-8-8-8\-1-1-1-1-0-0--0h3-3-3--3/-8-8-8-8\-5-5--5\-|

 

 

Interlude

(Gtr 1) (Delay)

|-------12-10-12-------12-10-|

|----11-------------11-------|

|-/12-----------/12----------|8x

|----------------------------|

|----------------------------|

|----------------------------|

|(Gtr 2)(Skip first 2 times)

|----------------------------|-------------------------------------|

|----------------------------|-------------------------------------|

|(7)-------------------------|(2)---------------(5)----------------|

|-5-5-5-5-5-5-5-5-5----------|-0-0-0-0-0-0-0-0-0-3-3-3-3-3-3-3-3-3-|

|-5-5-5-5-5-5-5-5-5----------|-0-0-0-0-0-0-0-0-0-3-3-3-3-3-3-3-3-3-|

|-5-5-5-5-5-5-5-5-5----------|-0-0-0-0-0-0-0-0-0-3-3-3-3-3-3-3-3-3-|

 

 

Chorus

|-----------------------------------------------------------------------|

|-----------------------------------------------------------------------|

|-----------------------------------------------------------------------|

|-0-0--0h3-3-3--3/-8-8-8-8\-5-5--5\--0-0--0h3-3-3--3/-8--8-8-8\-5-5--5\-|

|-0-0--0h3-3-3--3/-8-8-8-8\-5-5--5\--0-0--0h3-3-3--3/-8--8-8-8\-5-5--5\-|

|-0-0--0h3-3-3--3/-8-8-8-8\-5-5--5\--0-0--0h3-3-3--3/-8--8-8-8\-5-5--5\-|

 

|---------------------------------------------------------------------|

|---------------------------------------------------------------------|

|---------------------------------------------------------------------|

|-0-0--0h3-3-3--3/-8-8-8-8\-1-1-1-1-0-0--0h3-3-3--3/-8-8-8-8\-5-5--5\-|

|-0-0--0h3-3-3--3/-8-8-8-8\-1-1-1-1-0-0--0h3-3-3--3/-8-8-8-8\-5-5--5\-|

|-0-0--0h3-3-3--3/-8-8-8-8\-1-1-1-1-0-0--0h3-3-3--3/-8-8-8-8\-5-5--5\-|

 

Outro(Delay)

|-3---------------------5---5-------------3h5p3---3h5p3---3h5p3-------------------|

|-3-5p3---5p3---5p3-----6---6---5---------3-----3-3-------3-----5/6-5-6-5-6-5-6---|

|-3-3---3-3---3-3-------5---5-----5-------3-------3-----3-3---------------------5-|

|-5-5-----5-----5---5/7---5---3-----3-3/5-5-------5-------5-----------------------|

|-x-------------------------------------------------------------------------------|

|-5-------------------------------------------------------------------------------|

 

 

 

Return to my Panic At the Disco Tablature page

The Tablature is Copyright its respective owners.

The creator of this page is in no way affiliated with Panic At the Disco. The creator of this page is simply a fan that made a page about Panic At the Disco Tablature and more.

Sign Up For My Newsletter
Subscribe | Unsubscribe

Site Map | Disclaimer | Privacy Policy | Media Kit | Submissions/Corrections

Website © 2000-2014 mattsmusicpage.com. All rights reserved.

Legal & DMCA: Matt's Music Page has been providing lyrics and tabs in a legal way, paying royalties each year to a few organizations. Then, all lyrics and tabs were removed from the site. Now, there's a new owner to the site, which purchased it August 26, 2014, and he is in negotiation to obtain licensing from BMI at the moment. If you have a specific DMCA request -- please do not hesitate to contact me via the contact button on top. I will do my very best to keep this site fully legal.

Get our toolbar!

 


Harmonica RARE NEW Marine Band 1896 LIMITED EDITION Gold Plated Germany GIFTS
$
Harmonica RARE NEW Marine Band 1896 LIMITED EDITION Gold Plated Germany GIFTS  picture


Moomin shop / MC Mini Harmonica Charm Ivory W 43mm / New Japan Original Item
$
Moomin shop / MC Mini Harmonica Charm Ivory W 43mm / New Japan Original Item picture


Moomin shop MC Mini Harmonica Charm Black W 43mm 5 holes / New Japan Original
$
Moomin shop MC Mini Harmonica Charm Black W 43mm 5 holes / New Japan Original picture


MASTER SUPERTONE Harmonica in Original Box made in Germany
$
MASTER SUPERTONE Harmonica in Original Box made in Germany picture


Moomin shop MC Mini Harmonica Charm Red W 43mm 5 holes / New Japan Original Item
$
Moomin shop MC Mini Harmonica Charm Red W 43mm 5 holes / New Japan Original Item picture


USSR Soviet mouth organ harmonica Pioneer Kharkov . Original
$
USSR Soviet mouth organ harmonica Pioneer Kharkov . Original picture


HOHNER MARINE BAND 10 HOLES HARMONICA HARP KEY OF D FLAT 1896/20
$
HOHNER MARINE BAND 10 HOLES HARMONICA HARP KEY OF D FLAT 1896/20 picture


SUZUKI Harmonica Manji M20C PRO Diatonic 10 Hole 20 Reed Made in Japan Free P+H
$
SUZUKI Harmonica Manji M20C PRO Diatonic 10 Hole 20 Reed Made in Japan Free P+H picture


Clover Harmonica ca. 1896 Strauss Sachs NY Show Card RARE Advertising Trade Card
$
Clover Harmonica ca. 1896 Strauss Sachs NY Show Card RARE Advertising Trade Card picture


ORIGINAL 1950's "HOLIDAY CARD" SHOWING HARMONICA WITH MOVABLE PARTS
$
ORIGINAL 1950's