Your One-Stop Source For
Music Lyrics
Bass and Guitar Tabs
and More...
Music Lyrics Bass and Guitar Tabs

 

The Panic At the Disco Tabs Are Below

Learn To Read Tab
Chords Handbook
Corrections & Additions
Get Official Tab
Panic tabs @ 911Tabs

Panic! at Disco - I write sins not tragedies

 

.Intro Rest

 

Chorus 1 part1

G |---------------------------------------------------------------------------------|

D |---------------------------------------------------------------------------------|

A |--0--00--------------------------------------------------------------------------|

E |-----------3--333--0-0-0000~----00-5---------------------------------------------|

part 2

G |---------------------------------------------------------------------------------|

D |---------------------------------------------------------------------------------|

A |--0--00--------------------------------------------------------------------------|

E |-----------3--333--0-0-0000--000555----------------------------------------------|

 

Chorus 2 part 1

G |---------------------------------------------------------------------------------|

D |---------------------------------------------------------------------------------|

A |-0000000----------------------------5555h77--------------------------------------|

E |-------------33333333--00000000--------------------------------------------------|

part 2

G |---------------------------------------------------------------------------------|

D |---------------------------------------------------------------------------------|

A |-0000000-------------------------------------------------------------------------|

E |-------------33333333--00000000--000-555-----------------------------------------|

 

Rest

 

Verse part 1

G |---------------------------------------------------------------------------------|

D |---------------------------------------------------------------------------------|

A |--00-00-00 00--------------------------------------------------------------------|

E |------------------33-33-33-33----------------------------------------------------|

 

Verse part 2

G |---------------------------------------------------------------------------------|

D |---------------------------------------------------------------------------------|

A |--00-00-00-00-00-00-00-00--------------------------------------------------------|

E |---------------------------------33-33-33-33-33-33-33-33-------------------------|

Rest- Interlude

 

Chorus 2 part 1

Chorus 2 part 2

Chorus 2 part 1

 

Chorus2-part 2 extended X2

G |----------------------------------|--------------------------------------|

D |----------------------------------|--------------------------------------|

A |-0000000--------------------------|--------5~--2~----------------5~--2~--------|

E |-------------33333333--00000000---|---3~---------------3~--0~-------------------|

 

Chorus 1 part1

 

Chorus 1 part 2

G |--------------------------------------------------------------------------|

D |--------------------------------------------------------------------------|

A |--0--00-------------------------------------------------------------------|

E |-----------3--333--0-0-0000--X0X------------------------------------------|

Chorus 1 part1

Chorus 1 part 2

 

Outro

G |--------------------------------------------------|

D |--------------------------------------------------|

A |---------5~--2~----------------5~--2~--------|

E |-----3~---------------3~--0~-------------------|

 

 

Return to my Panic At the Disco bass tabs page

The Tablature is Copyright its respective owners.

Sign Up For My Newsletter
Subscribe | Unsubscribe

Site Map | Disclaimer | Privacy Policy | Media Kit | Submissions/Corrections

Website © 2000-2014 mattsmusicpage.com. All rights reserved.

Legal & DMCA: Matt's Music Page has been providing lyrics and tabs in a legal way, paying royalties each year to a few organizations. Then, all lyrics and tabs were removed from the site. Now, there's a new owner to the site, which purchased it August 26, 2014, and he is in negotiation to obtain licensing from BMI at the moment. If you have a specific DMCA request -- please do not hesitate to contact me via the contact button on top. I will do my very best to keep this site fully legal.

Get our toolbar!