Your One-Stop Source For
Music Lyrics
Bass and Guitar Tabs
and More...
>Music Lyrics Bass and Guitar Tabs

 

The Panic At the Disco Guitar Tablature Is Below

Learn To Read Tab
Chords Handbook
Corrections & Additions
Get Official Tab
Panic tabs @ 911Tabs

Artist: Panic! at the Disco

Song: Always

Album: Vices & Virtues (2011)

 

Tabbed by: neuroxik

Email: neuroxik [-at] gmail [dot-] com

 

Tuning: Standard (EADGBe)

 

Note: This tab is perfect. I tabbed every single note.

 

Acoustic, fingerpicking

 

Intro

Riff A end Riff A

A Asus4 A

e|---------------------------|----------------------------|

B|------2-------------3------|------2---------------------|

G|--2------2-----2-------2---|--2------2----2--1--2----4--|

D|--2-2------2---2-2-------2-|--2-2------2--2-------------|

A|--0-------(0)--0--------(0)|--0-------(0)---------------|

E|---------------------------|-----------------0--2----4--|

when the

 

Verse

Riff B end Riff B

A A7m A7 Dsus2 A - A7m - A7 - Dsus2

e||------------------------|-------------------0-----||----------------------|

B||-----2-----------2------|------2--------3-----3---||----------------------|

G||-2------2----1------1---|--0------0-------2-----2-||- Repeat Riff B -----|

D||-2-2------2----2------2-|----2------2---0---------||- once more ------|

A||-0--------0--0-------(0)|--0-------(0)------------||-- -------|

E||------------------------|-------------------------||----------------------|

world...

 

Fm Fadd9 A B7 Bm E

e|------2----------4-----|------5----------2-----|------2----------0---------|

B|--2-----2----2-----2---|--2-----2----4-----4---|--3-----3----------0-------|

G|----2-----2----2-----2-|----2-----2----2-----2-|----4-----4--1-------1-----|

D|--4----------3---------|--2--------------------|---------------2-----------|

A|-----------------------|-------------2---------|--2------------------------|

E|-----------------------|-----------------------|-------------0-------------|

you are taking...

 

 

[band enters]

Dsus2 A A7m Dsus2

e|------0------------------||----------------------|------0------------------|

B|--3-----3----3-----------||-----2----------2-----|--3-----3----------------|

G|----2-----2--2--1--2--4--||-2-----2----1-----1---|----2-----2-----2--2--4--|

D|--0----------------------||---2-----2----2-----2-|--0-----------0----------|

A|-------------------------||-0----------0---------|-------------------------|

E|----------------0--2--4--||----------------------|-------------------2--4--|

it was al- ways... you

 

A A7m Dsus2 F#m Fadd9

e|----------------------|-----0---------------|------2----------4------------|

B|-----2----------2-----|-3-----3-------------|--2-----2----2-----2----------|

G|-2-----2----1-----1---|---2-----2-----2-----|----2-----2----2-----2--------|

D|---2-----2----2-----2-|-0-----------0---2-3-|--4----------3----------------|

A|-0----------0---------|---------------------|------------------------------|

E|----------------------|---------------------|------------------------------|

I'm the light

 

A B7 Bm E E7 Dsus2

e|------5----------2-----|------2----------0-----|------0----------0---------|

B|--2-----2----4-----4---|--3-----3----------0---|--3-----3----3-----3-------|

G|----2-----2----2-----2-|----4-----4--1---------|----2-----2----2-----2-----|

D|--2--------------------|---------------2-----0-|--0----------0-------------|

A|-------------2---------|--2--------------------|---------------------------|

E|-----------------------|-------------0---------|---------------------------|

blinking know...

 

 

(Riff A, same as intro here)

A Asus4 A A A7m

e|-----------------------|------------------------||-------------------------|

B|------2----------3-----|------2-----------------||-----2----------2--------|

G|--2-----2----2-----2---|--2-----2----2--1--2--4-||-2-----2----1-----1------|

D|-(2)2-----2-(2)2-----2-|-(2)2-----2--2----------||---2-----2----2-----2----|

A|--0-------0--0-------0-|--0-------0-------------||-0----------0------------|

E|-----------------------|----------------0--2--4-||-------------------------|

I'm a fly that's

 

A7 Dsus2 A A7m A7 Dsus2

e|-----------------0-----|-------------------------|----------------0--------|

B|------2------3-----3---|--------2----------2-----|-----2------3-----3------|

G|--0-----0------2-----2-|----2-----2----1-----1---|-0-----0------2-----2----|

D|----2-----2--0---------|------2-----2----2-----2-|---2-----2--0------------|

A|--0--------------------|----0----------0---------|-0-----------------------|

E|-----------------------|-------------------------|-------------------------|

trapped in a web but I'm think- ing that...

 

 

F#m B7 Bm E E7

e|------2----------4-----|------5-----------2-----|------2----------0--------|

B|--2-----2----2-----2---|--2-----2-----4-----4---|--3-----3----------0------|

G|----2-----2----2-----2-|----2-----2-----2-------|----4-----4--1------------|

D|--4----------3---------|--2-------------------4-|---------------2-----0----|

A|-----------------------|--------------2---------|--2-----------------------|

E|-----------------------|------------------------|-------------0------------|

Lone- ly, lonely little life...

 

 

Dsus2 A Asus4 Dsus2

e|------0-----0----------|-----------------------|-----0---------------------|

B|--3-----3--------------|------2----------2-----|-3-----3-------------------|

G|----2----------1--2--4-|--2-----2----1-----1---|---2-----2------2----2--4--|

D|--0-------0------------|----2-----2----2-----2-|-0-----------0-------------|

A|-----------------------|--0----------0---------|---------------------------|

E|---------------0--2--4-|-----------------------|---------------------2--4--|

fine it was al- ways you fallin' for me

 

 

A A7m Dsus2 F#m Fadd9

e|-----------------------|------0-----------------|------2----------4--------|

B|------2----------2-----|--3-----3---------------|--2-----2----2-----2------|

G|--2-----2----1-----1---|----2-----2----2--------|----2-----2----2-----2----|

D|----2-----2----2-----2-|--0----------0----2--3--|--4----------3------------|

A|--0----------0---------|------------------------|--------------------------|

E|-----------------------|------------------------|--------------------------|

...for me I'm the light

 

 

A B7 Bm E Dsus2

e|------5----------2-----|------2-----------0------|-------0----------0------|

B|--2-----2----4-----4---|--3-----3-----------0----|---3-----3----3-----3----|

G|----2-----2----2-----2-|----4-----4---1------(2)-|-----2-----2----2-----2--|

D|--2--------------------|----------------2--------|---0----------0----------|

A|-------------2---------|--2----------------------|-------------------------|

E|-----------------------|--------------0----------|-------------------------|

..the road blink back to let me know that

 

BRIDGE

C#m Dsus2 F#m

e||-----4----------4-----|------0----------0-----|------2------------2-------|

B||-5-----5----5-----5---|--3-----3----3-----3---|--2-----2------2-----2-----|

G||---6-----6----6-----4-|----2-----2----2-----2-|----2---2-2-2----2-----2---|

D||----------------------|--0----------0---------|--4------------4-----------|

A||-4----------4---------|-----------------------|---------------------------|

E||----------------------|-----------------------|---------------------------|

I'm skin and bone

 

Dsus2 Dsus2/C# C#m Dsus2

e|------0----------------|-------4----------4-----|------0----------0--------|

B|--3-----3---(3)--------|---5-----5----5-----5---|--3-----3----3-----3------|

G|----2-----2-----2--(2)-|-----6-----6----6-----6-|----2-----2----2-----2----|

D|--0----------0------0--|------------------------|--0----------0------------|

A|------------------4----|---4----------4---------|--------------------------|

E|-----------------------|------------------------|--------------------------|

 

 

F#m F#m Asus4 Dsus2 F/D

e|------2----------------|------0----------0-----|--------------------------||

B|--2-----2---2-------(3)|--3-----3----3-----3---|(3)-----------------------||

G|----2-----2----2-----2-|----2-----2----2-----2-|-2----------------1--2--4-||

D|--4---------4-----2----|--0----------0---------|-3------------------------||

A|-----------------------|-----------------------|--------------------------||

E|-----------------------|-----------------------|------------------0--2--4-||

LET RING________.

It was

 

A A7m Dsus2 A A7m

e|----------------------|------0----------------|----------------------------|

B|------2---------2-----|--3-----3--------------|------2----------2----------|

G|--2-----2---1-----1---|----2-----2-----2-2--4-|--2-----2----1-----1--------|

D|----2-----2---2-----2-|--0-----------0--------|----2-----2----2-----2------|

A|--0---------0---------|-----------------------|--0----------0--------------|

E|----------------------|------------------2--4-|----------------------------|

al- ways you...

 

 

Dsus2 F#m Fadd9 A B7

e|------0--------------|-----2----------4-----|------5----------2------------|

B|--3-----3------------|-2-----2----2-----2---|--2-----2----4-----4----------|

G|----2-----2----2-----|---2-----2----2-----2-|----2-----2----2--------------|

D|--0----------0---2-3-|-4----------3---------|--2------------------4--------|

A|---------------------|----------------------|-------------2----------------|

E|---------------------|----------------------|------------------------------|

 

 

Bm E E7 Dm A

e|------2-----------0-----|------1-----------1-----|------0----------0-------|

B|--3-----3-----------0---|--3-----3----3------3---|--2-----2----------0-----|

G|----4---------1---------|----2-----2-----2-----2-|----2-----2--2-------2---|

D|----------4\----2-----0-|--0----------0----------|---------------2---------|

A|--2---------------------|------------------------|--0----------0-----------|

E|--------------0---------|------------------------|-------------------------|

 

 

Dm (slows down) A (strummed)

e|------1-------------1------|--0--------------------------------------------|

B|--3-----3----3----3---3----|--2--------------------------------------------|

G|----2-----2----2--------2--|--2--------------------------------------------|

D|--0----------0-------------|--2--------------------------------------------|

A|---------------------------|--0--------------------------------------------|

E|---------------------------|-----------------------------------------------|

Return to my Panic At the Disco Guitar Tablature page

The Tablature is Copyright its respective owners.

The creator of this page is in no way affiliated with Panic At the Disco. The creator of this page is simply a fan that made a page about Panic At the Disco Tablature and more.

Sign Up For My Newsletter
Subscribe | Unsubscribe

Site Map | Disclaimer | Privacy Policy | Media Kit | Submissions/Corrections

Website © 2000-2014 mattsmusicpage.com. All rights reserved.

Legal & DMCA: Matt's Music Page has been providing lyrics and tabs in a legal way, paying royalties each year to a few organizations. Then, all lyrics and tabs were removed from the site. Now, there's a new owner to the site, which purchased it August 26, 2014, and he is in negotiation to obtain licensing from BMI at the moment. If you have a specific DMCA request -- please do not hesitate to contact me via the contact button on top. I will do my very best to keep this site fully legal.

Get our toolbar!

 

THE ROLLING STONES : VODOO LOUNGE MARVEL MUSIC 1995 nm
$6.06
THE ROLLING STONES : VODOO LOUNGE    MARVEL MUSIC    1995    nm picture


2 Rolling Stones Collectible Singing Guitar plays " Ruby Tuesday" Ornaments NIB
$14.99
2 Rolling Stones  Collectible Singing Guitar plays


NIB ROLLING STONES SHE’S A RAINBOW MUSICAL GUITAR ORNAMENT CVS
$9.99
NIB ROLLING STONES SHE’S A RAINBOW MUSICAL GUITAR ORNAMENT CVS  picture


NIB ROLLING STONES RUBY TUESDAY MUSICAL GUITAR ORNAMENT CVS EXCLUSIVE
$9.99
NIB ROLLING STONES RUBY TUESDAY MUSICAL GUITAR ORNAMENT CVS EXCLUSIVE  picture


NIB ROLLING STONES I’M FREE MUSICAL GUITAR ORNAMENT CVS EXCLUSIVE
$9.99
NIB ROLLING STONES I’M FREE MUSICAL GUITAR ORNAMENT CVS EXCLUSIVE  picture