Your One-Stop Source For
Music Lyrics
Bass and Guitar Tabs
and More...
Music Lyrics Bass and Guitar Tabs

 

The Tabs Are Below

Learn To Read Tab
Chords Handbook
Corrections & Additions
Get Official Tab
Outkast tabs @ 911Tabs

outkast - the way you move

 

intro

E|---------------------------------------------------------------------------||

B|---------------------------------------------------------------------------||

G|---------------------------------------------------------------------------||

D|------3--------------------------------------------------------------------||

A|-----------4-----3---------------------------------------------------------||

E|---------------------------------------------------------------------------||

boom boom boom

 

verse ( this is the bass riff that plays over the drums)

E|---------------------------------------------------------------------------||

B|---------------------------------------------------------------------------||

G|---------------------------------------------------------------------------||

D|---------------------------------------------------------------------------||

A|---2/3---------------------------------------------------------------------||

E|-------4-3-----------------------------------------------------------------||

 

guitar intro into the chorus

E|---------------------------------------------------------------------------||

B|---------------------------------------------------------------------------||

G|---------------------------------------------------------------------------||

D|-9/10-10-10----------------------------------------------------------------||

A|-7/-8--8--8--10/8/6/8------------------------------------------------------||

E|--------------8/6/4/6------------------------------------------------------||

 

Return to my Outkast tabs page

The Tablature is Copyright its respective owners.

Sign Up For My Newsletter
Subscribe | Unsubscribe

Site Map | Disclaimer | Privacy Policy | Media Kit | Submissions/Corrections

Website © 2000-2014 mattsmusicpage.com. All rights reserved.

Legal & DMCA: Matt's Music Page has been providing lyrics and tabs in a legal way, paying royalties each year to a few organizations. Then, all lyrics and tabs were removed from the site. Now, there's a new owner to the site, which purchased it August 26, 2014, and he is in negotiation to obtain licensing from BMI at the moment. If you have a specific DMCA request -- please do not hesitate to contact me via the contact button on top. I will do my very best to keep this site fully legal.

Get our toolbar!

 

VINTAGE SORRENTO MUSIC JEWELRY BOX
$45.0
VINTAGE SORRENTO MUSIC JEWELRY BOX picture


VINTAGE LACQUERED MUSIC BOX JAPAN
$25.99
VINTAGE LACQUERED MUSIC BOX JAPAN picture


Vintage Kehlsteinhaus Bavaria Germany Colorscope Cow Bell View Master Music Box
$8.99
Vintage Kehlsteinhaus Bavaria Germany Colorscope Cow Bell View Master Music Box picture


VINTAGE SCHMIDT Signed Collectible Musical Turning Clown
$9.99
VINTAGE  SCHMIDT Signed Collectible Musical Turning Clown picture


Vintage - Linen - Postcard - Stage - Radio City Music Hall - New York City
$3.75
Vintage - Linen - Postcard - Stage - Radio City Music Hall - New York City   picture