Your One-Stop Source For
Music Lyrics
Bass and Guitar Tabs
and More...
Music Lyrics Bass and Guitar Tabs

 

The Tabs Are Below

Learn To Read Tab
Chords Handbook
Corrections & Additions
Get Official Tab
Outkast tabs @ 911Tabs

Outkast - Take Off Your Cool

Tabbed By: Pseudo

Email: acook1@attbi.com

 

Tuning: Standard (E A D G B E)

 

 

I'm not sure if this is the actual name of the song. It's track 18 on

"The Love Below".

 

 

Intro/Verse/Chorus

 

Am7 C Em

 

e---0----0---0---|

B---1----1---0---|

G---0----0---0---|

D---2----2---2---|

A---0----3---2---|

E------------0---|

 

 

For the Bridge, just pick the normal chords and throw an extra note

occaisonally.

 

Here's the first part of the solo.

1/4

e---6/8-(x)---8\----8-5--------------------------------------------|

B-----------------------8-6\5---5----------------------------------|

G---------------------------------5---7-5---5-5\--5---5-7-7^---5---|

D-----------------------------------------x---------7--------------|

A------------------------------------------------------------------|

E------------------------------------------------------------------|

 

For the rest of the solo, just solo in the scale of Am:

()=passing tone

e-------------------------------5-8---|

B-----------------------5-(6)-8-------|

G-------------------5-7-(8)-----------|

D---------------5-7-------------------|

A-------5-(6)-7-----------------------|

E---5-8-------------------------------|

 

That's it.

 

 

Return to my Outkast tabs page

The Tablature is Copyright its respective owners.

Sign Up For My Newsletter
Subscribe | Unsubscribe

Site Map | Disclaimer | Privacy Policy | Media Kit | Submissions/Corrections

Website © 2000-2014 mattsmusicpage.com. All rights reserved.

Legal & DMCA: Matt's Music Page has been providing lyrics and tabs in a legal way, paying royalties each year to a few organizations. Then, all lyrics and tabs were removed from the site. Now, there's a new owner to the site, which purchased it August 26, 2014, and he is in negotiation to obtain licensing from BMI at the moment. If you have a specific DMCA request -- please do not hesitate to contact me via the contact button on top. I will do my very best to keep this site fully legal.

Get our toolbar!

 

BRAND NEW KEY OF C HOHNER MINI HARMONICA HARP KEYRING KEYCHAIN KEY RING CHAIN
$8.21
BRAND NEW KEY OF C HOHNER MINI HARMONICA HARP KEYRING KEYCHAIN KEY RING CHAIN picture


RISING SONS BAND *2X3 FRIDGE MAGNET* VOCALS GUITAR MANDOLIN DOBRO HARMONICA SONG
$3.99
RISING SONS BAND *2X3 FRIDGE MAGNET* VOCALS GUITAR MANDOLIN DOBRO HARMONICA SONG picture


Vtg Christmas Angel Baby Girl W Harmonica Boy W Book SET OF 2 W GOLD WINGS
$125.0
Vtg Christmas Angel Baby Girl W Harmonica Boy W Book SET OF 2 W GOLD WINGS  picture


Beautiful Hand Carved Jewelry Trinket Jewelry Box Harmonica Case Bone And Brass
$14.5
Beautiful Hand Carved Jewelry Trinket Jewelry Box Harmonica Case Bone And Brass picture


BRAND NEW* HOHNER BOB DYLAN SIGNATURE LIMITED EDITION HARMONICA COLLECTORS ITEM
$140.19
BRAND NEW* HOHNER BOB DYLAN SIGNATURE LIMITED EDITION HARMONICA COLLECTORS ITEM picture