Your One-Stop Source For
Music Lyrics
Bass and Guitar Tabs
and More...
Music Lyrics Bass and Guitar Tabs

 

The Tabs Are Below

Learn To Read Tab
Chords Handbook
Corrections & Additions
Get Official Tab
Offspring tabs @ 911Tabs

 

Artist: The Offspring

Album: Conspiracy of One

Track: Vultures

 

*** Visit www.coolast.com for Conspiracy of One tabs *****

 

Done with all 7 released CO1 songs,

I did a revise of this great one,

Vultures. thnx to the webmaster of cooltohate.com,

who gave me his oppinion on the intro.

 

Have Fun!

 

/per (per@coolast.com)

 

 

intro 6x

riff1 3x

bridge1 1x

riff2 3x

bridge2 1x

intro 3x

riff1 3x

bridge1 1x

riff2 3x

bridge2 1x

riff2 3x

bridge 1x

solo 1x

riff1 3x

bridge1 1x

riff2 3x

bridge2 1x

 

 

riff2 3x

bridge2 1x

let the last chord on the bridge2 ring..

 

Intro:

e|--------------------------------------------------

B|--------------------------------------------------

G|--------------------------------------------------

D|---2------2------2--------------------------------

A|-0---0--3---3--2---2-----2------------------------

E|---------------------0-3---3----------------------

 

riff1:

e|--------------------------------------------------

B|--------------------------------------------------

G|--------------------------------------------------

D|-2-2-2--2-2-2----2--------------------------------

A|-0-0-0--3-3-3--2---2------2-----------------------

E|---------------------3--0---3---------------------

 

bridge1:

e|--------------------------------------------------

B|--------------------------------------------------

G|--------------------------------------------------

D|-2-2-2-2-2-2-2-2-2-2-2-2-2-2:-2:-2:---------------

A|-0-0-0-0-0-0-0-0-0-0-0-0-0-0:-0:-0:---------------

E|--------------------------------------------------

 

Riff2:

e|--------------------------------------------------

B|--------------------------------------------------

G|--------------------------------------------------

D|-2-2-2--2-2-2-------------------------------------

A|-0-0-0--3-3-3----2--------------------------------

E|---------------2----2-2-2-3-----------------------

 

Bridge2:

e|--------------------------------------------------

B|--------------------------------------------------

G|--------------------------------------------------

D|-2-2-2-2-2-2-2--2:-2:--2-2-2-2-2-2-2--2:-2:-------

A|-0-0-0-0-0-0-0--0:-0:--3-3-3-3-3-3-3--3:-3:-------

E|--------------------------------------------------

 

Solo: (use some cool zoom effect)

e|--------------------------------------------------

B|--------------------------------------------------

G|--------------------------------------------------

D|---1/2---2-----2-------1/2---2h3r2r0---2-----2----

A|-0-----3---3-2---3~--0-----3---------3---3-2---0--

E|--------------------------------------------------

Solo part2:

e|--------------------------------------------------

B|--------------------------------------------------

G|------------------5/7-----------------------------

D|---1/2----2/4-2----------2-----2------------------

A|-0-----3--------3------0---3-2---3----------------

E|--------------------------------------------------

 

 

Return to my to my Offspring tabs page

The Tablature is Copyright its respective owners.

Sign Up For My Newsletter
Subscribe | Unsubscribe

Site Map | Disclaimer | Privacy Policy | Media Kit | Submissions/Corrections

Website © 2000-2014 mattsmusicpage.com. All rights reserved.

Legal & DMCA: Matt's Music Page has been providing lyrics and tabs in a legal way, paying royalties each year to a few organizations. Then, all lyrics and tabs were removed from the site. Now, there's a new owner to the site, which purchased it August 26, 2014, and he is in negotiation to obtain licensing from BMI at the moment. If you have a specific DMCA request -- please do not hesitate to contact me via the contact button on top. I will do my very best to keep this site fully legal.

Get our toolbar!