Your One-Stop Source For
Music Lyrics
Bass and Guitar Tabs
and More...
Music Lyrics Bass and Guitar Tabs

 

The Tabs Are Below

Learn To Read Tab
Chords Handbook
Corrections & Additions
Get Official Tab
Offspring tabs @ 911Tabs

 

"SMASH IT UP"

Written by Rat Scabies, Captain Sensible,

Dave Vanian and Alasdair Ward

 

* This means play a lot

 

 

Intro

E---0---------2-----------0-----0---------------------0*

B---0---------0-----------3-----2---------------------0*

G---0---------0-----------0-----0---play X2 then-0 *

D---2---------2-----------2-----2---------------------2*

A---2---------2-----------2-----2----------------------2*

E---0---------0-----------0-----0----------------------0*

 

E------3333--------------00000000

B------3333--7777-----00000000

G--5--6666--7777-----00000000 X4

D--5--5555--7777-----22222222

A--3--5555--5555-----22222222

E------3333--------------00000000

 

 

Chorus (Your are on your own for the lead)

 

E----------------------------------------------------------

B---------------------------------------------------------

G--------------------------------------------------------

D--55--33--77--33--55--33--5555------------- X2

A--55--33--77--33--55--33--5555-------------

E--33--11--55--11--33--11--3333-------------

 

 

Verse

E-----------------------------------------------------

B----------------------------------------------------

G-------------5*---------5*-----------------------

D--5555----5*---5*---5*----5*---------------------

A--5555----3*---5*---3*---5*---------------------

E--3333----------3*---------3*-----------------------

 

Chorus

Verse

Chorus

 

Chorus 2

E----------------------------------------------------

B---------------------------------------------------

G-------------------------------------------------

D--5555------------3333--------------------

A--3333--9999---5555--5555-----------

E-----------7777------------3333----------

 

E----------------------------------------------

B---------------------------------------------

G----------------------------------------------

D--5555-------------7*------------------------

A--3333---9999---5*---------------------

E------------7777-------------------------

 

 

Break

E-----------------------------------------------------------------------

B---------------------------------------------------------12-15-12

G----------------9-00-12-00-9-00-12-00-9-12------------

D---2----------------------------------------------------------------

A---2 let ring------------------------------------------------------

E---0----------------------------------------------------------------

(Smash it up)

 

E--------------------------------------------------------------------

B---------------------------------------------------------------------

G--------------------------------------------------------------------

D-------------------------------------------------------------------

A----4444------77--22------------------------------------------

E----2222------55--00------------------------------------------

(Screaming)

 

 

 

E-------------------------------------------------

B--------------------------------------------------

G---------------------------------------------------

D--------------------------------------------------

A----999999----77---------------------------

E----777777----55-------------------------

(Smash it up)

 

Verse

Chorus

Chorus2

 

 

End

E---------------------------------------------------------------------

B--------------------------------------------------------------------

G-------------------------------------------------------------------

D-------------5---------------------------------------------------

A--5----------3---------------------------------------------------

E--3--------------------------------------------------------------

(everybody smashing things down)

 

 

Thats it, have fun!!!!!!!!!!!!

Please E-Mail me.

Jerm2000@aol.com

 

 

 

Return to my to my Offspring tabs page

The Tablature is Copyright its respective owners.

Sign Up For My Newsletter
Subscribe | Unsubscribe

Site Map | Disclaimer | Privacy Policy | Media Kit | Submissions/Corrections

Website © 2000-2014 mattsmusicpage.com. All rights reserved.

Legal & DMCA: Matt's Music Page has been providing lyrics and tabs in a legal way, paying royalties each year to a few organizations. Then, all lyrics and tabs were removed from the site. Now, there's a new owner to the site, which purchased it August 26, 2014, and he is in negotiation to obtain licensing from BMI at the moment. If you have a specific DMCA request -- please do not hesitate to contact me via the contact button on top. I will do my very best to keep this site fully legal.

Get our toolbar!

 

Starbucks You Are Here Coffee Mug/Cup KENTUCKY - Horses, Banjo, Blue, White
$19.99
Starbucks You Are Here Coffee Mug/Cup KENTUCKY - Horses, Banjo, Blue, White picture


KNOWLES ROCKWELL HERITAGE "THE BANJO PLAYER" FIRST EDITION 1989 PLATE COA
$5.99
KNOWLES ROCKWELL HERITAGE


Vintage Postcard 1981 Disney World Banjo Kings Main Street USA 1981 Postmark
$4.99
 Vintage Postcard 1981 Disney World Banjo Kings Main Street USA 1981 Postmark picture


Banjo Barometer With Thermometer Hygrometer 490mm
$84.76
Banjo Barometer With Thermometer Hygrometer 490mm picture


ANTIQUE JAPANESE NIPPON FIGURINE SET OF 3 WOMEN GEISHA PLAYING DRUM BANJO FAN
$24.0
ANTIQUE JAPANESE NIPPON FIGURINE SET OF 3 WOMEN GEISHA PLAYING DRUM BANJO FAN picture