Your One-Stop Source For
Music Lyrics
Bass and Guitar Tabs
and More...
Music Lyrics Bass and Guitar Tabs

 

The Tabs Are Below

Learn To Read Tab
Chords Handbook
Corrections & Additions
Get Official Tab
Offspring tabs @ 911Tabs

 

(SECRET SONG2) by The Offspring. Album: The Offspring - Smash (1994)

This is the song hidden at the end of Smash, time 9:08. Played without

distortion. There are two guitars: verse- and solo-guitar. You can`t play

both so decision is yours, solo-guitar is a little bit harder.

 

# verse # X 4 # solo # X 2

E------------------------------| E------------------------------|

B------------------------------| B-------4-5/7-5-4--------------|

G------------------------------| G---4-5-----------5-4--4-5-4---|

D-------1-2/4-2-1--------------| D------------------------------|

A---2-3-----------3-2--2-3-2---| A------------------------------|

E------------------------------| E------------------------------|

 

# verse2 # p=pull-off h=hammer-on

E------------------------------|

B------------------------------|

G-------------2----------------|

D-------1-2/4---4-2-1h2p1--1---|

A---2-3------------------------|

E------------------------------|

 

# verse3 # # solo2 #

E------------------------------| E-------------5----------------|

B------------------------------| B-------4-5/7---7-5-4h5--5-7---|

G-------------2----------------| G---4-5------------------------|

D-------1-2/4---4-2-1h2--2-4---| D------------------------------|

A---2-3------------------------| A------------------------------|

E------------------------------| E------------------------------|

Play verse2 then verse3 or solo2. And immediately after that:

 

# verse4 #

E------------------------------------------------------------------------|

B-------------1--0-1/3-1-0-----0-1-/3--1-0---0h1-0--0-1--0---0---0---0---|

G-----------2---------------2--------------2-----------------------------|

D---2-1-2-4--------------------------------------------------------------|

A------------------------------------------------------------------------|

E------------------------------------------------------------------------|

 

# solo3 # # solo4 # X 2

E-----------5-8--7---| E---------11-12/14-12-11-------------------|

B---5-4-5-7----------| B---12-13----------------13-12--12-13-12---|

G--------------------| G------------------------------------------|

D--------------------| D------------------------------------------|

A--------------------| A------------------------------------------|

E--------------------| E------------------------------------------|

 

# bridge #

E-----------------------------------------------------------|

B-----------------------------------------------------------|

G-----------------------------------------------------------|

D---9/10\9--7/8\7--5/6\5--4/5\4--2/3\2--1/2\1--1------------|

A-------------------------------------------------3---3-2---|

E-----------------------------------------------------------|

 

# solo-bridge #

E--------------------------------------------------------------|

B---12/13\12--10/12\10--8/9\8--7/8\7--5/6\5--4/5\4--4----------|

G------------------------------------------------------5---5---|

D--------------------------------------------------------------|

A--------------------------------------------------------------|

E--------------------------------------------------------------|

After bridge solo-guitar plays solo X3. And there it is!

 

 

 

Return to my to my Offspring tabs page

The Tablature is Copyright its respective owners.

Sign Up For My Newsletter
Subscribe | Unsubscribe

Site Map | Disclaimer | Privacy Policy | Media Kit | Submissions/Corrections

Website © 2000-2014 mattsmusicpage.com. All rights reserved.

Legal & DMCA: Matt's Music Page has been providing lyrics and tabs in a legal way, paying royalties each year to a few organizations. Then, all lyrics and tabs were removed from the site. Now, there's a new owner to the site, which purchased it August 26, 2014, and he is in negotiation to obtain licensing from BMI at the moment. If you have a specific DMCA request -- please do not hesitate to contact me via the contact button on top. I will do my very best to keep this site fully legal.

Get our toolbar!