Your One-Stop Source For
Music Lyrics
Bass and Guitar Tabs
and More...
>Music Lyrics Bass and Guitar Tabs

 

The Tabs Are Below

Learn To Read Tab
Chords Handbook
Corrections & Additions
Get Official Tab
Offspring tabs @ 911Tabs

 

Pretty Fly (For A White Guy) by The OffSpring

 

 

main riff 4x verse

||-----------------------------------||---7-7---7-7---7-7---7-7---||----

||-----------------------------------||---7-7---7-7---7-7---7-7---||----

||*-----------------------7-/-9-\-7-*||---------------------------||----

||*-9-x-x-9-\-4-/-7---9-x-7-/-9-\-7-*||---------------------------||----

||--9-x-x-9-\-4-/-5---9-x-5-/-7-\-5--||---------------------------||----

||--7-x-x-7-\-2-/-5---7-x------------||---------------------------||----

 

chorus

------------------------------------------------------------------------

------------------------------------------------------------------------

------9-/-11-9-/-11-7-x-7---7---9-x-9-7-----------9-/-11-9-/-11-7-x-7---

9-x-9-9-/-11-9-/-11-7-x-7-7-7---9-x-9-7-7---9-x-9-9-/-11-9-/-11-7-x-7---

9-x-9-7-/-9--7-/-9--5-x-5-7-5---7-x-7-5-7---9-x-9-7-/-9--7-/-9--5-x-5---

7-x-7---------------------5-------------5---7---7-----------------------

 

alternate verse end

---------------||---------------------------||--------------------------

---------------||---------------------------||--------------------------

--7-9-7-10-9-7-||---------------------------||-12-12-\-7-12-------------

7-7-9-7-10-9-7-||-9-7-/-9-7-/-9-7-/-9-9-9-\-||-12-12-\-7-12---7-7-2-7---

7-5-7-5-8--7-5-||-9-7-/-9-7-/-9-7-/-9-9-9-\-||-10-10-\-5-10---7-7-2-7---

5--------------||-7-5-/-7-5-/-7-5-/-7-7-7-\-||----------------5-5-0-5---

 

 

 

 

Return to my to my Offspring tabs page

The Tablature is Copyright its respective owners.

Sign Up For My Newsletter
Subscribe | Unsubscribe

Site Map | Disclaimer | Privacy Policy | Media Kit | Submissions/Corrections

Website © 2000-2014 mattsmusicpage.com. All rights reserved.

Legal & DMCA: Matt's Music Page has been providing lyrics and tabs in a legal way, paying royalties each year to a few organizations. Then, all lyrics and tabs were removed from the site. Now, there's a new owner to the site, which purchased it August 26, 2014, and he is in negotiation to obtain licensing from BMI at the moment. If you have a specific DMCA request -- please do not hesitate to contact me via the contact button on top. I will do my very best to keep this site fully legal.

Get our toolbar!

 

Goebel Children of De Grazia "INDIAN BOY WITH DRUM" 7308 Figurine Signed
$59.99
Goebel Children of De Grazia


CLETRAC GENERAL BRAKE DRUM #112256
$19.95
CLETRAC GENERAL BRAKE DRUM #112256 picture


RABBITT BEATING A DRUM, CHILDS HANKIE, 9" BY 9"
$5.0
RABBITT BEATING A DRUM, CHILDS HANKIE,  9


Vintage Ceiling Light Globe Drum Shade White w/Clear Textured Glass Kitchen MCM
$14.99
Vintage Ceiling Light Globe Drum Shade White w/Clear Textured Glass Kitchen MCM picture


Ronnie "I'll Play My Drum For You"~Cherished Teddies #912905 ~ 6CC1/871
$5.0
Ronnie