Your One-Stop Source For
Music Lyrics
Bass and Guitar Tabs
and More...
Music Lyrics Bass and Guitar Tabs

 

The Tabs Are Below

Learn To Read Tab
Chords Handbook
Corrections & Additions
Get Official Tab
Offspring tabs @ 911Tabs

 

NOT THE ONE by The Offspring. Album: The Offspring - Smash (1994)

If you want to play the most easiest Offspring song ever made, play this.

Although this song is long, it hasn`t got many guitar riffs and all of them

are very easy to play. It`s time to relax!

 

# intro # X 4 *=play 16X # intro2 # X 2 (over intro)

E-------------------------| E---------------------------------|

B-------------------------| B---------------------------------|

G-------------------------| G---5-5--5-5--7-7-----------------|

D----*--------------------| D---5-5--5-5--7-7--7-7--7-7-7-7---|

A---3---5-5-5-5-5-5----*--| A---3-3--3-3--5-5--7-7--7-7-7-7---|

E---------------------5---| E------------------5-5--5-5-5-5---|

\___palm-mute_____/

 

# verse # X 4

E-----------------------------------------------|

B-----------------------------------------------|

G---5-5-5-5-5-5-5-5--7-7-7-7--------------------|

D---5-5-5-5-5-5-5-5--7-7-7-7--7-7-7-7-7-7-7-7---|

A---3-3-3-3-3-3-3-3--5-5-5-5--7-7-7-7-7-7-7-7---|

E-----------------------------5-5-5-5-5-5-5-5---|

\____________palm-muted_________________/

 

# chorus # X 2

E-------------------------------------------------------------|

B-------------------------------------------------------------|

G-------------4-4--5-5--5-5-5-5-5-5--5-5--7-7-----------------|

D---7-7--7-7--4-4--5-5--5-5-5-5-5-5--5-5--7-7--7-7--7-7-7-7---|

A---7-7--7-7--2-2--3-3--3-3-3-3-3-3--3-3--5-5--7-7--7-7-7-7---|

E---5-5--5-5-----------------------------------5-5--5-5-5-5---|

 

Play intro or intro2, verse, chorus, intro or intro2, verse, chorus X4

 

# end chorus2 # *=play 14X

E-------|

B-------|

G----*--| (Yeeaaah...)

D---5---|

A---5---|

E---3---|

 

Play intro and intro2. Done! Ready for Smash?!

 

Return to my to my Offspring tabs page

The Tablature is Copyright its respective owners.

Sign Up For My Newsletter
Subscribe | Unsubscribe

Site Map | Disclaimer | Privacy Policy | Media Kit | Submissions/Corrections

Website © 2000-2014 mattsmusicpage.com. All rights reserved.

Legal & DMCA: Matt's Music Page has been providing lyrics and tabs in a legal way, paying royalties each year to a few organizations. Then, all lyrics and tabs were removed from the site. Now, there's a new owner to the site, which purchased it August 26, 2014, and he is in negotiation to obtain licensing from BMI at the moment. If you have a specific DMCA request -- please do not hesitate to contact me via the contact button on top. I will do my very best to keep this site fully legal.

Get our toolbar!