Your One-Stop Source For
Music Lyrics
Bass and Guitar Tabs
and More...
Music Lyrics Bass and Guitar Tabs

 

The Offspring Guitar Tabs Are Below

Learn To Read Tab
Chords Handbook
Corrections & Additions
Get Official Tab
Offspring tabs @ 911Tabs

Song:Nothingtown

Album:Rise and Fall,Rage and Grace

Artist:The Offspring

Date Tabbed:June,2008

Guitar Tabber:Ryan Manongdo/18/Vancouver,Ca

rhyezkie@gmail.com(gtalk)

no_falter0x@yahoo.com(YM,friendster,facebook&myspace)

 

For any comments,questions or suggestions,just post a comment or PM me.Pilipino Rules!!

 

If you guys want the Half-Step Down version,just send me a message:)

 

Gtr.Legends:

b - bend

\ - slide

h - hammer-on

~ - let it ring

. - palm muting

 

Gtr.Tuning:Standard(Normal)

 

Intro:

e|-------------------------------------------|

B|-------------------------------------------|

G|-9~--8~--6~---------------99------999999---|

D|-9~--8~--6~--9~--7~--9~---99------999999---|

A|-7~--6~--4~--9~--7~--9~---77------777777---|

E|-------------7~--5~--7~--------------------|

.. ......

 

Verse 1:Let's make this...

e|--------------------------------------|

B|--------------------------------------|

G|-99-----99-66----66-------------------| 2x

D|-99-----99-66----66-77----77--99999---|

A|-77-----77-44----44-77----77--99999---|

E|--------------------55----55--77777---|

.....

 

Chorus:Why o why...

e|--------------------------------------------------------------------------------------------|

B|--------------------------------------------------------------------------------------------|

G|---------------9~--8~--6~------------------9~-8~--6~----------------------6~-4~-------------|

D|-7777--9999----9~--8~--6~--9~--7777--9999--9~-8~--6~--9~--7777-9999--6666-6~-4~-7777-9999---|

A|-7777--9999----7~--6~--4~--9~--7777--9999--7~-6~--4~--9~--7777-9999--6666-4~-2~-7777-9999---|

E|-5555--7777----------------7~--5555--7777-------------7~--5555-7777--4444-------5555-7777---|

 

Pre-Verse 2:

e|----------------------------|

B|----------------------------|

G|----------------------------|

D|-9999--6666--99999----------|

A|-7777--4444--77777-999999---|

E|-------------------777777---|

 

Verse 2:These city streets...

Play Verse 1

 

Repeat Chorus:

 

e|--------------|

B|--------------|

G|--------------| 3x

D|-7777-99999---|

A|-7777-99999---|

E|-5555-77777---|

 

Before Bridge:Play Pre-Verse 2

 

Bridge prt.1(Bass):Play Verse 1

 

Bridge prt.2(Gtr.):

Gtr.1:Play Verse 1

 

Gtr.2

e|------------------------9---------------------------------------------------------------1414-1616-1717-19/---|

B|-9-9-9-9-9--99-12--9-12---9-7---------9h1010--9h1010--9h1010--9h1010--11h1212--11h1212--1414-1616-1717-19/---|

G|-9-9-9-9-9--99--9--9----------9-------9--9-9--9--9-9--9--9-9--9--9-9--11-1111--11-1111--1414-1616-1717-19/---|

D|-9-9-9-9-9--99--9--9------------11b--------------------------------------------------------------------------|

A|-------------------------------------------------------------------------------------------------------------|

E|-------------------------------------------------------------------------------------------------------------|

. . . . . .

 

Bridge prt.3(Last prt.):Ohhhhhh...ohhhh

e|-----------------------------------------------|

B|-----------------------------------------------|

G|-9-9-9-9-9-9--6-6-6-6-6------------------------|

D|-9-9-9-9-9-9--6-6-6-6-6--7-7-7-7-7-7---99999---|

A|-7-7-7-7-7-7--4-4-4-4-4--7-7-7-7-7-7---99999---|

E|-------------------------5-5-5-5-5-5---77777---|

. . . . . . . . . . . . . . . .....

 

Repeat Chorus:

 

And I'll row it...

e|--------------|

B|--------------|

G|--------------| 3x

D|-7777-99999---|

A|-7777-99999---|

E|-5555-77777---|

 

Outro:

e|------------------------------|

B|------------------------------|

G|-9~--8~--6~--------------9~---| 4x

D|-9~--8~--6~--9~--7~--9~--9~---|

A|-7~--6~--4~--9~--7~--9~--7~---|

E|-------------7~--5~--7~-------|

 

End...

 

 

Nothing Town Lyrics:

 

Verse 1

Let’s make this complicated

Thinking is overrated

We’re busting out

Of this shitty little town

Green grass and colored lenses

Tear down these picket fences

Burn in our beds

While the city lies sleeping

 

Chorus:

Why oh why?

Are we starting up and going down?

My oh my

Just the two of us in Nothingtown

Our superhero play

We’ll leave this town today

Hold on tighter

With my lighter

Shining through

 

Verse 2:

These city streets are burning

Rose red your wheels are turning

Make me believe

Someday we could really leave

Blindfold a new direction

Stop asking better questions

Don’t figure out

That we’re never getting out

 

Repeat Chorus:

 

Why oh why?

Are we starting up and going down?

My oh my

Just the two of us in Nothingtown

Our superhero play

Our dreams get in the way

And I’ll row it if you steer it

I’ll yell until you hear it

Hold on tighter

With my lighter

Shining through

 

Still stuck in Nothingtown

Still stuck in Nothingtown

Come on let’s go

Click here to return to my Offspring Guitar Tabs page

The Offspring Guitar Tablature is Copyright its respective owners.

Sign Up For My Newsletter
Subscribe | Unsubscribe

Site Map | Disclaimer | Privacy Policy | Media Kit | Submissions/Corrections

Website © 2000-2014 mattsmusicpage.com. All rights reserved.

Get our toolbar!