Your One-Stop Source For
Music Lyrics
Bass and Guitar Tabs
and More...
Music Lyrics Bass and Guitar Tabs

 

The Tabs Are Below

Learn To Read Tab
Chords Handbook
Corrections & Additions
Get Official Tab
Offspring tabs @ 911Tabs

The Noose - Splinter - 2003

 

STANDARD TUNING Distortion throughout.

 

Intro

 

Around 180 bpm

 

Gtr I x 5

|---------------------------------|---------------------------------|

|---------------------------------|---------------------------------|

|---------------------------------|---------------------------------|

|-----9-----9-(9)---5-5---5-5-----|-0-0-4p0-5p0-4p0-2p0-4p0-5p0-4p0-|

|-7-7---7-7-------3-----3-----3-3-|---------------------------------|

|---------------------------------|---------------------------------|

 

 

|---------------------------------|---------------------------------|

|---------------------------------|---------------------------------|

|---------------------------------|---------------------------------|

|-----9-----9-(9)---5-5---5-5---5-|-0-0-4p0-5p0-4p0-2p0-4p0-5p0-4p0-|

|-7-7---7-7-------3-----3-----3---|---------------------------------|

|---------------------------------|---------------------------------|

 

Pre-verse

 

|----------|------------|-----------|-------|

|----------|------------|-----------|-------|

|-0--------|-(0)--------|-----------|-------|

|-2--------|-(2)--------|-----------|-------|

|-2--------|-(2)--------|-----------|-------|

|-0--------|-(0)--------|-----------|-------|

 

Gtr II

|----------|------------|-----------|-------|

|----------|------------|-----------|-------|

|-0--------|------------|-----------|-12----|

|-2--------|--5---------|-12--------|-------|

|-2--------|------------|-----------|-------|

|-0--------|------------|-----------|-------|

 

Verse (followed by just bass and drums after this chord)

 

|----------|------------|

|----------|------------|

|-0--------|-(0)--------|

|-2--------|-(2)--------|

|-2--------|-(2)--------|

|-0--------|-(0)--------|

 

Then

 

|-----------------|-----------------|-----------------|-----------------|

|-----------------|-----------------|-----------------|-----------------|

|-----------------|-----------------|-7-7-7-7-7-7-7-7-|-9-9-9-9-9-9-9-9-|

|-2-2-2-2-2-2-2-2-|-5-5-5-5-5-5-5-5-|-7-7-7-7-7-7-7-7-|-9-9-9-9-9-9-9-9-|

|-2-2-2-2-2-2-2-2-|-5-5-5-5-5-5-5-5-|-5-5-5-5-5-5-5-5-|-7-7-7-7-7-7-7-7-|

|-0-0-0-0-0-0-0-0-|-3-3-3-3-3-3-3-3-|-----------------|-----------------|

 

 

|-----------------|-----------------|-----------------|-----------------|

|-----------------|-----------------|-----------------|-----------------|

|-----------------|-----------------|-7-7-7-7-7-7-7-7-|-7-7-7-7-7-7-7-7-|

|-2-2-2-2-2-2-2-2-|-5-5-5-5-5-5-5-5-|-7-7-7-7-7-7-7-7-|-7-7-7-7-7-7-7-7-|

|-2-2-2-2-2-2-2-2-|-5-5-5-5-5-5-5-5-|-5-5-5-5-5-5-5-5-|-5-5-5-5-5-5-5-5-|

|-0-0-0-0-0-0-0-0-|-3-3-3-3-3-3-3-3-|-----------------|-----------------|

 

 

 

Chorus x 2

 

 

|-----------------|-----------------|-----------------|-----------------|

|-----------------|-----------------|-----------------|-----------------|

|-9-9-9-9-9-9-9-9-|-----------------|-7-7-7-7-7-7-7-7-|-9-9-9-9-9-9-9-9-|

|-9-9-9-9-9-9-9-9-|-5-5-5-5-5-5-5-5-|-7-7-7-7-7-7-7-7-|-9-9-9-9-9-9-9-9-|

|-7-7-7-7-7-7-7-7-|-5-5-5-5-5-5-5-5-|-5-5-5-5-5-5-5-5-|-7-7-7-7-7-7-7-7-|

|-----------------|-3-3-3-3-3-3-3-3-|-----------------|-----------------|

 

Verse 2 x 3

 

D U

|---------|

|---------|

|---------|

|-2--2----|

|-2--2----|

|-0--0----|

 

Then x 4

 

|-----------------|

|-----------------|

|-7-7-7-7-7-7-7-7-|

|-7-7-7-7-7-7-7-7-|

|-5-5-5-5-5-5-5-5-|

|-----------------|

 

Then chorus, then intro riff once.

 

Solo

 

Gtr I

 

|----------------------|----------------------|

|----------------------|----------------------|

|---------------14b16--|-14b16r14----(14)-12--|

|-14v---(14)-12--------|----------------------|

|----------------------|----------------------|

|----------------------|----------------------|

 

 

|-10-----(10)-10-----------12---\---|

|-13b15--(13)-13b15r=13----15b17\---|

|-----------------------14----------|

|-----------------------------------|

|-----------------------------------|

|-----------------------------------|

 

 

Outro

 

PM| PM| PM| PM|

|-------------------|-------------------|

|-------------------|-------------------|

|-7S9-9-9-9-(9)-9-9-|-------------------|

|-7S9-9-9-9-(9)-9-9-|-4S5-5-5-5-(5)-5-5-|

|-5S7-7-7-7-(7)-7-7-|-4S5-5-5-5-(5)-5-5-|

|-------------------|-2S3-3-3-3-(3)-3-3-|

 

 

PM| PM| PM| PM|

|-------------------|-------------------|

|-------------------|-------------------|

|-5S7-7-7-7-(7)-7-7-|-7S9-9-9-9-(9)-9-9-|

|-5S7-7-7-7-(7)-7-7-|-7S9-9-9-9-(9)-9-9-|

|-3S5-5-5-5-(5)-5-5-|-5S7-7-7-7-(7)-7-7-|

|-------------------|-------------------|

 

 

 

The other parts are repeated again you can figure the order out for yaself buddy ;)

 

Hope it's easy enough to understand, any problems put itin the comments and i'll fix em :)

 

 

Return to my to my Offspring tabs page

The Tablature is Copyright its respective owners.

Sign Up For My Newsletter
Subscribe | Unsubscribe

Site Map | Disclaimer | Privacy Policy | Media Kit | Submissions/Corrections

Website © 2000-2014 mattsmusicpage.com. All rights reserved.

Legal & DMCA: Matt's Music Page has been providing lyrics and tabs in a legal way, paying royalties each year to a few organizations. Then, all lyrics and tabs were removed from the site. Now, there's a new owner to the site, which purchased it August 26, 2014, and he is in negotiation to obtain licensing from BMI at the moment. If you have a specific DMCA request -- please do not hesitate to contact me via the contact button on top. I will do my very best to keep this site fully legal.

Get our toolbar!