Your One-Stop Source For
Music Lyrics
Bass and Guitar Tabs
and More...
>Music Lyrics Bass and Guitar Tabs

 

The Tabs Are Below

Learn To Read Tab
Chords Handbook
Corrections & Additions
Get Official Tab
Offspring tabs @ 911Tabs

 

Artist: The Offspring

Album: Conspiracy of One

Track: Million Miles Away

 

Revised by Christian Perreault, webmaster of The Offspring Online on December 10th 2000

»» webmaster@offspring-online.com

 

Had to fix this one,

the intro didnt sound right.

The Chorus is a bit different,

I didnt know Offspring used thoose chords to mutch.

The solo needed some refreshments to, so its kind of a new tab,

based on the old.

 

Have fun with this one, that solo is hard to sound right,

but fun to play.

 

Intro:

e|---------------------------------------------------------|

B|---------------------------------------------------------|

G|----------------------------------------------9---9-9-9--|

D|-------------------7-7-7----------------7-7-7-9:--9-9-9--|

A|-9-9-9-7-7-7-9-9-9-------9-9-9-7h9--5:--7-7-7-7---7-7-7--|

E|----------------------------------------5-5-5------------|

 

second guitar plays this together with the intro after awhile:

* = play some times.

* * * * *

e|----------------

B|----------------

G|-------4--7--9--

D|-4--7--4--7--9--

A|-4--7--2--5--7--

E|-2--5-----------

 

Chorus:

* *

e|-----------------------------

B|-----------------------------

G|-12-11----------9-9-9-9-9-9--

D|-11-11--7-7-7-7-9-9-9-9-9-9--

A|--9--9--7-7-7-7-7-7-7-7-7-7--

E|--------5-5-5-5--------------

 

e|-----------------------------

B|-----------------------------

G|-12-11----------9-9-9-9-9-9--

D|-11-11--7-7-7-7-9-9-9-9-9-9--

A|--9--9--7-7-7-7-7-7-7-7-7-7--

E|--------5-5-5-5--------------

 

- Pre-chorus - play 2X | ~ = let ring

e|----------------------------|

B|----------------------------|

G|--4--4-6--6-7--7-6--6-4~~~--|

D|----------------------------|

A|--2--2-4--4-5--5-4--4-2~~~--|

E|----------------------------|

 

Verse

*= a bunch of times.

Slide between the chords, not legato slide

but that slide noice of tutching the fretboard to mutch.

e|-------------------------------------------|

B|---*---------*-----------------------------|

G|---m---------5--7-7-7-7-7-7--9-9-9-9-9-9---|

D|-4-4--4-7--7-5--7-7-7-7-7-7--9-9-9-9-9-9---|

A|-4-4--4-7--7-2--5-5-5-5-5-5--7-7-7-7-7-7---|

E|-2-2--2-5--5-------------------------------|

 

solo:

e|----------------------------------------------------------------11b--

B|-13^-14\12-10-12--14^-14\12-10-11h12-10--11~b-12-12-12-12-10h12------

G|-14^-15\13-11-10--14^-15\13-11-10----12------------------------------

D|---------------------------------------------------------------------

A|---------------------------------------------------------------------

E|---------------------------------------------------------------------

 

e|------------------------11b-11b-11b-11b-11b-11h12^13-----------------

B|-11~b-12-12-12-12-10h12------------------------------12^13\10--------

G|---------------------------------------------------------------------

D|---------------------------------------------------------------------

A|---------------------------------------------------------------------

E|---------------------------------------------------------------------

 

End on a F#m5 chord and let it ring. (244xxx)

 

 

Return to my to my Offspring tabs page

The Tablature is Copyright its respective owners.

Sign Up For My Newsletter
Subscribe | Unsubscribe

Site Map | Disclaimer | Privacy Policy | Media Kit | Submissions/Corrections

Website © 2000-2014 mattsmusicpage.com. All rights reserved.

Legal & DMCA: Matt's Music Page has been providing lyrics and tabs in a legal way, paying royalties each year to a few organizations. Then, all lyrics and tabs were removed from the site. Now, there's a new owner to the site, which purchased it August 26, 2014, and he is in negotiation to obtain licensing from BMI at the moment. If you have a specific DMCA request -- please do not hesitate to contact me via the contact button on top. I will do my very best to keep this site fully legal.

Get our toolbar!

 

AIR FRANCE - A HEBREW - FRENCH DICTIONARY ON A VINYL RECORD,ISRAEL,60's. cs4966
$39.95
AIR FRANCE - A HEBREW - FRENCH DICTIONARY ON A VINYL RECORD,ISRAEL,60's.  cs4966 picture


Vintage Super Heroes SuperCase Vinyl Records Superman Wonder Batman Joker
$38.0
Vintage Super Heroes SuperCase Vinyl Records Superman Wonder Batman Joker picture


DISNEY "SNOW WHITE & 7 DWARFS" 12" Vinyl LP Record w/Book DISNEYLAND RECORD 3906
$6.98
DISNEY


DISNEY "PETER PAN" 12" Vinyl LP Record w/ Book DISNEYLAND RECORD 3910
$6.98
DISNEY


DISNEY "The RESCUERS" 12" Vinyl LP Record DISNEYLAND RECORD 1369
$6.98
DISNEY