Your One-Stop Source For
Music Lyrics
Bass and Guitar Tabs
and More...
Music Lyrics Bass and Guitar Tabs

 

The Tabs Are Below

Learn To Read Tab
Chords Handbook
Corrections & Additions
Get Official Tab
Offspring tabs @ 911Tabs

 

IT`LL BE A LONG TIME by The Offspring. Album: The Offspring - Smash (1994)

This song`s got excellent guitar riffs which are very, very fun to play.

Getting the right rhythm in the chorus might be a little bit hard, but when

you get it - I`d better warn the people around you!

 

# verse # X 2 (brackets only second time)

E----------------------------------------------|

B----------------------------------------------|

G--(5)-7-7---5--7-7---5--3-3-3-10-10-10--7-7---|

D--(5)-7-7---5--7-7---5--3-3-3-10-10-10--7-7---|

A--(3)-5-5---3--5-5---3--1-1-1--8--8--8--5-5---|

E----------------------------------------------|

 

# pre-chorus # m=mute *=play 6X

E---------------------------------------------------->

B-----------*----------*--------------------------*-->

G---5--7-7-7---5--7-7-7---5--3-3-3-10-10-10--7-7-7--->

D---5--7-7-7---5--7-7-7---5--3-3-3-10-10-10--7-7-7--->

A---3--5-5-5---3--5-5-5---3--1-1-1--8--8--8--5-5-5--->

E----------m----------m--------------------------m--->

 

E----------------------------------------------|

B-----------*----------*-----------------------|

G---5--7-7-7---5--7-7-7---5--5-5-5--5-5-5---*--|

D---5--7-7-7---5--7-7-7---5--5-5-5--5-5-5--7---|

A---3--5-5-5---3--5-5-5---3--3-3-3--3-3-3--7---|

E----------m----------m--------------------5---|

 

# chorus # X 2

E--------------------------------------------------------------|

B--------------------------------------------------------------|

G---7-7-7-10-10-10--5-5-5--7-7-7---------5-5-5--5-5----7-7-7---|

D---7-7-7-10-10-10--5-5-5--7-7-7--8-8-8--5-5-5--5-5-7--7-7-7---|

A---5-5-5--8--8--8--3-3-3--5-5-5--8-8-8--3-3-3--3-3-7--5-5-5---|

E---------------------------------6-6-6-------------5----------|

 

# end-chorus #

E------------------------------------------|

B------------------------------------------|

G----------5-5-5--10-10-5--7-7-7)--5---2---|

D--(8-8-8--5-5-5--10-10-5--7-7-7)--5---2---|

A--(8-8-8--3-3-3---8--8-3--5-5-5)--3---0---|

E--(6-6-6----------------------------------|

 

Play verse, pre-chorus, chorus (end X2) and end-chorus (only brackets).

[(last two times ]

# bridge # X 6 # bridge2 # X 4 [ without muting)]

E----------------------------| E-------------------------------------------|

B----------------------------| B-------------------------------------------|

G---7-7-5-5-5--12-12-7-7-7---| G---5-5-5-5--12-12-12-12--7-7-7-7-7-7-7-7---|

D---7-7-5-5-5--12-12-7-7-7---| D---5-5-5-5--12-12-12-12--7-7-7-7-7-7-7-7---|

A---5-5-3-3-3--10-10-5-5-5---| A---3-3-3-3--10-10-10-10--5-5-5-5-5-5-5-5---|

E----------------------------| E-------------------------------------------|

\__________palm-muted_______________/

 

 

 

 

>>>>>>>>>>>>>> to next page

 

 

 

 

 

IT`LL BE A LONG TIME

 

# "solo" # X 2 (during verse) (brackets only first time)

E------------------------------------------------------------|

B---6-6-5-5-6-6--6-6-5-5-6-6--------8-8-8-3--(6-6-5-5-6-6)---|

G---5-5-4-4-5-5--5-5-4-4-5-5--5-5-5-7-7-7-2--(5-5-4-4-5-5)---|

D-----------------------------5-5-5--------------------------|

A------------------------------------------------------------|

E------------------------------------------------------------|

 

Play pre-chorus, chorus, end-chorus and start of the verse. And it`s over - oh bother.

 

 

 

Return to my to my Offspring tabs page

The Tablature is Copyright its respective owners.

Sign Up For My Newsletter
Subscribe | Unsubscribe

Site Map | Disclaimer | Privacy Policy | Media Kit | Submissions/Corrections

Website © 2000-2014 mattsmusicpage.com. All rights reserved.

Legal & DMCA: Matt's Music Page has been providing lyrics and tabs in a legal way, paying royalties each year to a few organizations. Then, all lyrics and tabs were removed from the site. Now, there's a new owner to the site, which purchased it August 26, 2014, and he is in negotiation to obtain licensing from BMI at the moment. If you have a specific DMCA request -- please do not hesitate to contact me via the contact button on top. I will do my very best to keep this site fully legal.

Get our toolbar!

 

Starbucks You Are Here Coffee Mug/Cup KENTUCKY - Horses, Banjo, Blue, White
$19.99
Starbucks You Are Here Coffee Mug/Cup KENTUCKY - Horses, Banjo, Blue, White picture


KNOWLES ROCKWELL HERITAGE "THE BANJO PLAYER" FIRST EDITION 1989 PLATE COA
$5.99
KNOWLES ROCKWELL HERITAGE


Vintage Postcard 1981 Disney World Banjo Kings Main Street USA 1981 Postmark
$4.99
 Vintage Postcard 1981 Disney World Banjo Kings Main Street USA 1981 Postmark picture


Banjo Barometer With Thermometer Hygrometer 490mm
$84.76
Banjo Barometer With Thermometer Hygrometer 490mm picture


ANTIQUE JAPANESE NIPPON FIGURINE SET OF 3 WOMEN GEISHA PLAYING DRUM BANJO FAN
$24.0
ANTIQUE JAPANESE NIPPON FIGURINE SET OF 3 WOMEN GEISHA PLAYING DRUM BANJO FAN picture