Your One-Stop Source For
Music Lyrics
Bass and Guitar Tabs
and More...
Music Lyrics Bass and Guitar Tabs

 

The Tabs Are Below

Learn To Read Tab
Chords Handbook
Corrections & Additions
Get Official Tab
Offspring tabs @ 911Tabs

Huck It - The Offspring

-------------------------------------------------------------------------------

 

Tabbed by: Matt Oak

Email: Darren@maye772.freeserve.co.uk

 

I don't claim this to be my own work. This is a correction of jelley17's tab.

I'm pretty sure this is correct but if i'm wrong, email me and i'll sort it.

 

| / Slide up

| \ Slide down

| h Hammer-on

| p Pull-off

| ~ Vibrato

| + Harmonic

| x Mute note

| * Palm Mute

| ¬ Pick Scrape

 

Tuning: Standard

 

Intro

Riff Chord played and held. Listen to song for timing

E|----------------------------|----------------------------------------------|

B|---12---------------13------|----------------------------------------------|

G|--------12----14------------|----9-----------------------------------------|

D|----------------------------|----9-----------------------------------------|

A|----------------------------|----7-----------------------------------------|

E|----------------------------|----------------------------------------------|

let ring '''''''''''''''''

Pre-Verse

 

Intro Riff with these chords

 

E|---------------------------------------------------------------------------|

B|---------------------------------------------------------------------------|

G|------------9999999-7777777----------12-12-12-12--14-14-14-14--------------|

D|------------9999999-7777777-7777777--12-12-12-12--14-14-14-14--------------|

A|-¬¬¬¬¬¬¬¬¬¬-7777777-5555555-7777777--10-10-10-10--12-12-12-12--------------|

E|-¬¬¬¬¬¬¬¬¬¬-----------------5555555----------------------------------------|

 

Verse One

 

E|---------------------------------------------------------------------------|

B|---------------------------------------------------------------------------|

G|--9---12--11-12--9---12--11-12--7------------------------------------------|

D|--9---12--11-12--9---12--11-12--7---5555555-/-7777777----------------------|

A|--7---10--9--10--7---10--9--10--5---5555555-/-7777777----------------------|

E|------------------------------------3333333-/-5555555----------------------|

palm mute *****************

 

E|---------------------------------------------------------------------------|

B|---------------------------------------------------------------------------|

G|--9---12--11-12----7777777777777777----------------------------------------|

D|--9---12--11-12----7777777777777777----------------------------------------|

A|--7---10--9--10----5555555555555555----------------------------------------|

E|---------------------------------------------------------------------------|

 

Chorus

 

E|---------------------------------------------------------------------------|

B|---------------------------------------------------------------------------|

G|----------------12-14-----99999--12----------------------------------------|

D|---10-10-10-10--12-14-12--99999--12-12-------------------------------------|

A|---10-10-10-10--10-12-12--77777--10-12-------------------------------------|

E|----8--8--8--8--------10------------10-------------------------------------|

 

E|---------------------------------------------------------------------------|

B|---------------------------------------------------------------------------|

G|---------------12-14----99999-12-----999999--12---9--7---------------------|

D|--10-10-10-10--12-14-12-99999-12-12--999999--12---9--7---------------------|

A|--10-10-10-10--10-12-12-77777-10-12--777777--10---7--5---------------------|

E|--8--8--8---8--------10----------10----------------------------------------|

 

Verse 2

 

E|---------------------------------------------------------------------------|

B|---------------------------------------------------------------------------|

G|--9---12--11-12--9---12--11-12--7------------------------------------------|

D|--9---12--11-12--9---12--11-12--7---5555555-/-7777777----------------------|

A|--7---10--9--10--7---10--9--10--5---5555555-/-7777777----------------------|

E|------------------------------------3333333-/-5555555----------------------|

palm mute *****************

E|---------------------------------------------------------------------------|

B|---------------------------------------------------------------------------|

G|--9---12--11-12--9---12--11-12--7------------------------------------------|

D|--9---12--11-12--9---12--11-12--7---5555555-/-7777777----------------------|

A|--7---10--9--10--7---10--9--10--5---5555555-/-7777777----------------------|

E|------------------------------------3333333-/-5555555----------------------|

palm mute *****************

E|---------------------------------------------------------------------------|

B|---------------------------------------------------------------------------|

G|-----------------------7---------------------------------------------------|

D|--2---5-4-5-4---5-4-5--7--5555555-/-7777777--------------------------------|

A|--2---5-4-5-4---5-4-5--5--5555555-/-7777777--------------------------------|

E|--0---3-2-3-2---3-2-3-----3333333-/-5555555--------------------------------|

 

E|---------------------------------------------------------------------------|

B|---------------------------------------------------------------------------|

G|-----------------------7--77777777777--------------------------------------|

D|--2---5-4-5-4---5-4-5--7--77777777777--------------------------------------|

A|--2---5-4-5-4---5-4-5--5--55555555555--------------------------------------|

E|--0---3-2-3-2---3-2-3------------------------------------------------------|

 

Chorus x2

 

Bridge

the bridge is the intro riff with the chord played and held

(again, listen to song for timing)

it then goes into this

 

E|---------------------------------------------------------------------------|

B|---------------------------------------------------------------------------|

G|----------------------------------5----------------------------------------|

D|------------22---5-4-5-4---5-4-5--5----555555-/-777777---------------------|

A|-¬¬¬¬¬¬¬¬¬¬-22---5-4-5-4---5-4-5--3----555555-/-777777---------------------|

E|-¬¬¬¬¬¬¬¬¬¬-00---3-2-3-2---3-2-3-------333333-/-555555---------------------|

 

E|---------------------------------------------------------------------------|

B|---------------------------------------------------------------------------|

G|-----------------------7-7777777777----------------------------------------|

D|--2---5-4-5-4---5-4-5--7-7777777777----------------------------------------|

A|--2---5-4-5-4---5-4-5--5-5555555555----------------------------------------|

E|--0---3-2-3-2---3-2-3------------------------------------------------------|

 

Chorus x2

 

End on

 

E|----------------|

B|----------------|

G|-77777777-9-----|

D|-77777777-9-----|

A|-55555555-7-----|

E|----------------|

 

Lyrics

 

Hitting walls for a feet

With our friends and we hear this free

All the dogs, dropping bombs

He see

 

HUCK IT

You don't have the ties

You won't agonize

HUCK IT

Cause you realize

You don't need to justify

That cable show is not the lives we know

 

Drop a bomb in the publics eye

Fuck the Spartans they always lie

You are pointing to go fast and GO

 

Broken bombs and baking skin

Notify your next of kin

You'll know you'll come alive some day

 

HUCK IT

Now you feel alive,

stinks like shit all the time

HUCK IT

Its like you gotta try

risky shit, by the time

 

You can not practice lay it on the line

 

HUCK IT

Now you're down in luck

cause you dont give a fuck

 

HUCK IT

And go by the time

You go out doin what you know

no talking shit just leave it all and go home

 

HUCK IT

Now youll feel alive

stinks like shit all the time

 

HUCK IT

Like you gotta try

risky shit by the time

cant practice just lay it on the line

 

HUCK IT

Now you're down in luck

cause you dont give a fuck

 

HUCK IT

And go by the time

You go out doin what you know

no talking shit just leave it all and go home

 

 

Return to my to my Offspring tabs page

The Tablature is Copyright its respective owners.

Sign Up For My Newsletter
Subscribe | Unsubscribe

Site Map | Disclaimer | Privacy Policy | Media Kit | Submissions/Corrections

Website © 2000-2014 mattsmusicpage.com. All rights reserved.

Legal & DMCA: Matt's Music Page has been providing lyrics and tabs in a legal way, paying royalties each year to a few organizations. Then, all lyrics and tabs were removed from the site. Now, there's a new owner to the site, which purchased it August 26, 2014, and he is in negotiation to obtain licensing from BMI at the moment. If you have a specific DMCA request -- please do not hesitate to contact me via the contact button on top. I will do my very best to keep this site fully legal.

Get our toolbar!