Your One-Stop Source For
Music Lyrics
Bass and Guitar Tabs
and More...
Music Lyrics Bass and Guitar Tabs

 

The Tabs Are Below

Learn To Read Tab
Chords Handbook
Corrections & Additions
Get Official Tab
Offspring tabs @ 911Tabs

 

"Hey Joe"

Written by Bill Roberts

 

 

Intro

E------0-------0---------------------------

B------4>5---3--------------------------

G-----------------------2-0---------------

D-----------------------------2-----------------

A--------------------------------------------------

E----------------------------------------------

 

 

Verse X4

E--------------------------------------------------

B--------------------------------------------------

G---5-5-5-5----------------7-7-7-7-------------

D---5-5-5-5---5-5-5-5---7-7-7-7--7-7-7-7

A---3-3-3-3---5-5-5-5---5-5-5-5--7-7-7-7

E----------------3-3-3-3---------------5-5-5-5

 

E-------------------------

B-------------------------

G-----------------------

D--2-2-2-2-2-2-2-2 at this part one guitar plays this

A--2-2-2-2-2-2-2-2 and the other plays some riffs (All riffs in E-blues)

E--0-0-0-0-0-0-0-0 I think that who ever does the lead did not say

"all right I will play this then that" I think

they

just play what they felt.

 

 

Verse 2 X3 There is some lead over this (all in E-blues)

 

E-----------------------------------------------

B---------------------------------------------

G-------5-------------------7--------------

D-------5---------5---------7-------7

A-------3---------5---------5-------7

E--0-0-----0-0--3---0-0----0-0--5

 

E------------------------

B------------------------

G------------------------

D---2-2-2-2-2-2-2-2

A---2-2-2-2-2-2-2-2

E---0-0-0-0-0-0-0-0

 

Break

 

E---------------------------------------

B---------------------------------------

G-------5-----------------7-------------- X1

D-------5-------5--------7-------7-------

A-------3-------5--------5-------7-------

E--0-0---0-0--3--0-0----0-0--5-

 

 

E-------------------------------------------

B-------------------------------------------

G------------------------------------------

D--------7-------5-5---------------------- X4

A--------5------3-3-----------------------

E---0-0---0-0-----------------------------

 

 

Back to verse

 

outro X2 (Solo on E-Blues 12 frett)

 

E-----------------------------------------------

B------------------------------------------------

G------------------------------------------------

D----------------------------------------------

A-3-----------2-3-4-5--------------4-5-6

E---0-1-2-3-------------2-3-4-5---------

 

E-----------------------------------------------

B----------------------------------------------

G---------------------------------------------

D---------------------------------------------

A-7-7-7----5----5-6--7-7-7-7-7-7------

E---------7----7------------------------------

 

 

Thats it have fun!!!!!!!!!!!

 

Jeremy Jerm2000@aol.com

 

Any qestions or comments E-Mail me!

 

 

Return to my to my Offspring tabs page

The Tablature is Copyright its respective owners.

Sign Up For My Newsletter
Subscribe | Unsubscribe

Site Map | Disclaimer | Privacy Policy | Media Kit | Submissions/Corrections

Website © 2000-2014 mattsmusicpage.com. All rights reserved.

Legal & DMCA: Matt's Music Page has been providing lyrics and tabs in a legal way, paying royalties each year to a few organizations. Then, all lyrics and tabs were removed from the site. Now, there's a new owner to the site, which purchased it August 26, 2014, and he is in negotiation to obtain licensing from BMI at the moment. If you have a specific DMCA request -- please do not hesitate to contact me via the contact button on top. I will do my very best to keep this site fully legal.

Get our toolbar!

 

1939 LYRIC THEATRE New York PHOTO
$5.83
1939 LYRIC THEATRE New York PHOTO picture


Star Spangled Banner or Marines Hymn lyrics signed by WWII Charles W. Lindberg
$10.0
Star Spangled Banner or Marines Hymn lyrics signed by WWII Charles W. Lindberg picture


OLD LARGE HISTORIC PHOTO OF THE LYRIC THEATRE, SYDNEY c1930s, WAR BONDS BOOTH
$7.42
OLD LARGE HISTORIC PHOTO OF THE LYRIC THEATRE, SYDNEY c1930s, WAR BONDS BOOTH picture


SONG OF REVOLUTION CARD SET WITH 13 MOST FAVORED COMMUNIST SONGS LYRICS + NOTES
$24.99
SONG OF REVOLUTION CARD SET WITH 13 MOST FAVORED COMMUNIST SONGS LYRICS + NOTES picture


OLD LARGE HISTORIC PHOTO OF THE LYRIC THEATRE, SYDNEY c1930s, WAR LOANS BOOTH
$7.42
OLD LARGE HISTORIC PHOTO OF THE LYRIC THEATRE, SYDNEY c1930s, WAR LOANS BOOTH picture