Your One-Stop Source For
Music Lyrics
Bass and Guitar Tabs
and More...
Music Lyrics Bass and Guitar Tabs

 

The Tabs Are Below

Learn To Read Tab
Chords Handbook
Corrections & Additions
Get Official Tab
Offspring tabs @ 911Tabs

 

 

"Gotta get away" by Offspring Tabbed by ZACH Downey*

This is my 4th tab file so i think i'm gettin' pretty good at it by now.This is gotta

get away by the Offspring.This tab is very accurate i think but, if not let me know.

 

At first there a bass intro that goes like this

BASS INTRO

1:------------------------------------------------------------------------------------------

2:------------------------------------------------------------------------------------------

3:-3-4-5-5-5-5-5-5-5-5---7-----7-7-----5-5-5-5-5-5-5-5-5---7-----7-7-----

4:------------------------------0-----0-0--------------------------------0-----0-0-----

 

GUITAR PART 1

Now it's the guitar's part (give this sort of quiet light distortion)

1:-10-10----3-3-3--0-----10-10----3-3-5--0--

2:-------------3-3-2--0-----------------3-3-3--0--

3:------------------------------------------------------

4:------------------------------------------------------

5:------------------------------------------------------

6:------------------------------------------------------

 

GUITAR PART 2

Now give this heavy distortion

1:------------|---------------|--------------|---------------|------------------|

2:------------|---------------|--------------|---------------|------------------|

3:--9-9/7-7|-9-9/12-12|-9-9/14-14|-9-9/14-14|--9-10-9-10-9|

4:--9-9/7-7|-9-9/12-12|-9-9/14-14|-9-9/14-14|--9-10-9-10-9|

5:--7-7/5-5|-7-7/10-10|-7-7/12-12|-7-7/12-12|--7--8--7--8-7|

6:------------|--------------|---------------|---------------|------------------|

 

VERSE

1:------------------------------------------------------------------------------------------------------

2:------------------------------------------------------------------------------------------------------

3:----------7--7----------7--7---------9--9---------12--12----------14----9--10--9--10--9-

4:----------7--7----------7--7---------9--9---------12--12----------14----9--10--9--10--9-

5:----------5--5----------5--5---------7--7---------10--10----------12----7---8---7---8---7-

6:--0--0----------0--0----------0--0--------0--0--------------0--0-------------------------------

 

CHORUS

1:------------------------------------------------------------------------

2:------------------------------------------------------------------------

3:--9--9--9--------------------------------------------7--7--7--7----

4:--9--9--9--9/10--10--10--10----5--5--5--5--7--7--7--7----

5:--7--7--7--9/10--10--10--10----5--5--5--5--5--5--5--5----

6:-------------7/--8---8----8----------3--3--3--3-------------------

 

 

 

Finally that's it! OK I thank everyone who has e-mailed me but

i need more requests so if you have any let me know and i'll see if i can help you out.

Also if any one has any stabbing westward (besides "what do i have to do") or gravity

kills please send them!Also i need more bass tabs if any one has any bass tabs at all

please send those!

 

ZACHCOOL@AOL.COM

OR

GUITAR1071@AOL.COM

 

Return to my to my Offspring tabs page

The Tablature is Copyright its respective owners.

Sign Up For My Newsletter
Subscribe | Unsubscribe

Site Map | Disclaimer | Privacy Policy | Media Kit | Submissions/Corrections

Website © 2000-2014 mattsmusicpage.com. All rights reserved.

Legal & DMCA: Matt's Music Page has been providing lyrics and tabs in a legal way, paying royalties each year to a few organizations. Then, all lyrics and tabs were removed from the site. Now, there's a new owner to the site, which purchased it August 26, 2014, and he is in negotiation to obtain licensing from BMI at the moment. If you have a specific DMCA request -- please do not hesitate to contact me via the contact button on top. I will do my very best to keep this site fully legal.

Get our toolbar!

 

Starbucks You Are Here Coffee Mug/Cup KENTUCKY - Horses, Banjo, Blue, White
$19.99
Starbucks You Are Here Coffee Mug/Cup KENTUCKY - Horses, Banjo, Blue, White picture


KNOWLES ROCKWELL HERITAGE "THE BANJO PLAYER" FIRST EDITION 1989 PLATE COA
$5.99
KNOWLES ROCKWELL HERITAGE


Vintage Postcard 1981 Disney World Banjo Kings Main Street USA 1981 Postmark
$4.99
 Vintage Postcard 1981 Disney World Banjo Kings Main Street USA 1981 Postmark picture


Banjo Barometer With Thermometer Hygrometer 490mm
$84.76
Banjo Barometer With Thermometer Hygrometer 490mm picture


ANTIQUE JAPANESE NIPPON FIGURINE SET OF 3 WOMEN GEISHA PLAYING DRUM BANJO FAN
$24.0
ANTIQUE JAPANESE NIPPON FIGURINE SET OF 3 WOMEN GEISHA PLAYING DRUM BANJO FAN picture