Your One-Stop Source For
Music Lyrics
Bass and Guitar Tabs
and More...
Music Lyrics Bass and Guitar Tabs

 

The Tabs Are Below

Learn To Read Tab
Chords Handbook
Corrections & Additions
Get Official Tab
Offspring tabs @ 911Tabs

 

Artist: The Offspring

Album: Conspiracy of One

Track: Denial, Revisited

 

*** Visit www.coolast.com for Conspiracy of One tabs *****

 

Strange track, dosnt sound like offspring,

and I must say that this is the least good

track of C01, (that I´ve heard), but hey,

its still better than like 90% of the

music made today *cough*S-Club 7*cough*,

so enjoy..

 

ok, I revised the bridge,

and fixed some typos I made..

 

 

Have Fun!

/per (per@coolast.com)

 

 

note:

* = ~6x

h = hammer on

r = release

/ = slide

H = harmonics

: = let ring

pm= palm mute

~ = vibrato

 

song structure:

intro 3x

bridge 1x

solo 3x

riff1 1x

intro 1x

solo 2x

riff1 3x(second & third time without pm)

riff2 1x

intro 2x

riff3 1x

riff1 2x(without pm)

riff4 1x

solo 1x

 

 

Intro:

e|--5-5-5-5h6-6r5--3-2-2--2-2-2-3h5-3-2-0-2-

B|------------------------------------------

G|------------------------------------------

D|------------------------------------------

A|------------------------------------------

E|------------------------------------------

intro part2:

e|--5-5-5-5h6-6r5--3-2-2-3-0----------------

B|------------------------------------------

G|------------------------------------------

D|------------------------------------------

A|------------------------------------------

E|------------------------------------------

 

bridge:

e|-5/6-5--------5--------5/6---7/8~---------

B|-------6--6-6---6--6-6-----6--------------

G|------------------------------------------

D|------------------------------------------

A|------------------------------------------

E|------------------------------------------

 

solo:

(Its not right, but close)

e|-5---5----3-3h5-5r3-2--5---5----3-3/5-3---

B|---6---6-----------------6---6----------5-

G|------------------------------------------

D|------------------------------------------

A|------------------------------------------

E|------------------------------------------

solo part2

 

e|-5-------3---3---2-5---6-5---3---3-5------

B|---6-6/5---4---3-----6-----6---4----------

G|------------------------------------------

D|------------------------------------------

A|------------------------------------------

E|------------------------------------------

 

riff1

* * * * * * * * *

e|------------------------------------------

B|------------------------------------------

G|-7----7--7---5---8---6---7---8---5---5----

D|-7----7--7---5---8---6---7---8---5---5----

A|-5----5--5---3---6---4---5---6---3---3----

E|------------------------------------------

pm ...

 

riff2

e|------------------------------------------

B|------------------------------------------

G|-7:-5:-5-6-6-4-4-6:-6-6-6-----------------

D|-7:-5:-5-6-6-4-4-6:-6-6-6-----------------

A|-5:-3:-3-4-4-2-2-4:-4-4-4-----------------

E|------------------------------------------

 

riff3

*** ** * * * * * * *

e|------------------------------------------

B|------------------------------------------

G|--7--7H--7---5---8---6---7---8---5---5----

D|--7--7H--7---5---8---6---7---8---5---5----

A|--5--5H--5---3---6---4---5---6---3---3----

E|------------------------------------------

pm ...

 

riff4:

e|------------------------------------------

B|------------------------------------------

G|-7:--7-5:--5-8:---------------------------

D|-7:--7-5:--5-8:---------------------------

A|-5:--5-3:--3-6:---------------------------

E|------------------------------------------

 

 

 

 

Return to my to my Offspring tabs page

The Tablature is Copyright its respective owners.

Sign Up For My Newsletter
Subscribe | Unsubscribe

Site Map | Disclaimer | Privacy Policy | Media Kit | Submissions/Corrections

Website © 2000-2014 mattsmusicpage.com. All rights reserved.

Legal & DMCA: Matt's Music Page has been providing lyrics and tabs in a legal way, paying royalties each year to a few organizations. Then, all lyrics and tabs were removed from the site. Now, there's a new owner to the site, which purchased it August 26, 2014, and he is in negotiation to obtain licensing from BMI at the moment. If you have a specific DMCA request -- please do not hesitate to contact me via the contact button on top. I will do my very best to keep this site fully legal.

Get our toolbar!