Your One-Stop Source For
Music Lyrics
Bass and Guitar Tabs
and More...
Music Lyrics Bass and Guitar Tabs

 

The Tabs Are Below

Learn To Read Tab
Chords Handbook
Corrections & Additions
Get Official Tab
Offspring tabs @ 911Tabs

 

Artist: The Offspring

Album: Conspiracy of One

Track: Dammit, I changed Again

 

ok, I've made it so good I can,

it relly sounds this way.

Please berate me if Im wrong,

because then its probably above my skills anyway,

to figure it out, that is.

 

 

Note:

On the solo1:

3 "-" means its a relativly long time interval,

2 "-" means its a bit faster, as when they change chords.

1 "-" means rather rapidly, you can probably hear the difference.

 

>>>> means pickslide, scrap-slide(bad word) the side of the plectrum

up towards the previous chord, making a cool sound.

 

Song Structure:

Intro

solo1 2x

pause (only bass 2x)

pre-verse

verse 2x

solo1 2x

pause (only bass 2x)

bridge 1 1/2x

pre-verse

verse 2x

solo1 2x

solo2 4x (dexter behinds 2&3 time, on 4:th, play pre-verse)

verse 2x

solo1 4x

pre-verse

outro

 

Intro:

e|------------------------

B|------------------------

G|------------------------

D|-3:---------------------

A|-3:---------------------

E|-1:----->>>>>>>>>>>>>---

 

solo1:

e|-------------------------------------------------------------------

B|-------------------------------------------------------------------

G|-10:---13-12-13--6:---13-12-13--8:---13-12-13--15-13-12-8:--(10)---

D|-------------------------------------------------------------------

A|--8:---11-10-11--4:---11-10-11--6:---11-10-11--13-11-10-6:--(-8)---

E|-------------------------------------------------------------------

 

pre-verse:

e|---------------------

B|---------------------

G|-----------------8:--

D|-6-6-6-6-6-6-6-6-8:--

A|-6-6-6-6-6-6-6-6-6:--

E|-4-4-4-4-4-4-4-4-----

 

verse:

e|-----------------------------------------------------------

B|-----------------------------------------------------------

G|-10-10-10-10-10-10--6-6-6-6-6-6---------------8-8-8-8-8-8--

D|-10-10-10-10-10-10--6-6-6-6-6-6--6-6-6-6-6-6--8-8-8-8-8-8--

A|--8--8--8--8--8--8--4-4-4-4-4-4--6-6-6-6-6-6--6-6-6-6-6-6--

E|---------------------------------4-4-4-4-4-4---------------

 

Bridge:

Second time only play half < > and instead of this part, play pre-verse.

e|--------------------------|---------------------------

B|--------------------------|---------------------------

G|--------------6-6-6-6-6-6-|--------------8-8-8-8-8-8--

D|-3-3-3-3-3-3--6-6-6-6-6-6-|-6-6-6-6-6-6--8-8-8-8-8-8--

A|-3-3-3-3-3-3--4-4-4-4-4-4-|-6-6-6-6-6-6--6-6-6-6-6-6--

E|-1-1-1-1-1-1--------------|-4-4-4-4-4-4---------------

pm...................................................

 

solo2:

You relly want that sound dexter does, dont you?

I use a zoom effect box, and I just turn the mix knob to max,

Making a nice echo effect. Thats about it. Dexter uses the same.

slide some between the chords, to make it sound a bit better.

 

Noodles:

e|-----------------------------------------------------------

B|-----------------------------------------------------------

G|-----------------------------------------------------------

D|-10-10-10-10---11--11--11--11--10--10--10--10----8-8-8-8---

A|---8--8--8--8----11--11--11------11--11--11--11---6-6-6-6--

E|-----------------------------------------------------------

 

Dexter:

e|------------------------

B|------------------------

G|------------------------

D|------------------------

A|-8~~--11~~--10~~--6~~---

E|------------------------

 

Outro: First play the pre-verse, then end on this.

e|-------------

B|-------------

G|-10:--10\----

D|-10:--10\3:--

A|--8:---8\3:--

E|--------\1:--

 

 

Return to my to my Offspring tabs page

The Tablature is Copyright its respective owners.

Sign Up For My Newsletter
Subscribe | Unsubscribe

Site Map | Disclaimer | Privacy Policy | Media Kit | Submissions/Corrections

Website © 2000-2014 mattsmusicpage.com. All rights reserved.

Legal & DMCA: Matt's Music Page has been providing lyrics and tabs in a legal way, paying royalties each year to a few organizations. Then, all lyrics and tabs were removed from the site. Now, there's a new owner to the site, which purchased it August 26, 2014, and he is in negotiation to obtain licensing from BMI at the moment. If you have a specific DMCA request -- please do not hesitate to contact me via the contact button on top. I will do my very best to keep this site fully legal.

Get our toolbar!