Your One-Stop Source For
Music Lyrics
Bass and Guitar Tabs
and More...
Music Lyrics Bass and Guitar Tabs

 

The Tabs Are Below

Learn To Read Tab
Chords Handbook
Corrections & Additions
Get Official Tab
Offspring tabs @ 911Tabs

 

Artist: The Offspring

Album: Conspiracy of One

Track: Come out Swinging

 

Well, I was the first to tab this one,

so I better be the first one to tab it exact.

Mine was playable, and sounded correct,

but if you listen carefully, there was some errors.

The other tabs we´re kind of close from time to time,

but this _IS_ the right tab,

or atleast as right I can be without asking Noodles & Dexter.

Anyway, just have fun,

and try to restrain yourself until the album

or a leaked mp3 comes out, I´ll tab it out,

all of them, just let them come out. :-)

 

/per (per@coolast.com, www.coolast.com)

 

 

Note:

* = play 6x

3 = play triplets

: = let ring for a bit then release and mute.

(x)= play x last time you repeat the riff

 

bass intro:

G|-----------------------------------------------2x

D|-----------------------------------------------

A|---------------7-----5---3-5-------------------

E|-3-3-1-3-1-5-3---5-----5-----5-----------------

 

 

Intro

e|-----------------------------------------------

B|-----------------------------------------------2x

G|----------------9----7---3-9-------------------

D|-5-3-5--3-7-5-7-9-7--7-7-5-9-7-----------------

A|-5-3-5--3-7-5-7-7-7--5-7-5-7-7-----------------

E|-3-1-3--1-5-3-5---5----5-----5-----------------

 

pre-verse:

3 3 3 3 3 3 3 3 3 3 3 3

e|---------------------------------------------------------------

B|---------------------------------------------------------------

G|-3-3-5-3-5--3-3-5-3-5-5--3-3-5-3-5-5--3-3-5-3-5-5--5-5-5-5-7:--

D|-3-3-5-3-5--3-3-5-3-5-5--3-3-5-3-5-5--3-3-5-3-5-5--5-5-5-5-7:--

A|-3-3-3-3-3--3-3-3-3-3-3--3-3-3-3-3-3--3-3-3-3-3-3--3-3-3-3-5:--

E|---------------------------------------------------------------

 

verse:(so quiet you´ll almost not notice it)

e|---------------------------

B|---------------------------

G|---------------------------

D|--------------6~-6~-9~-9~--

A|-9~-9~--7~-7~--------------

E|---------------------------

 

Solo:

* * * * *

e|------------------------------------

B|------------------------------------

G|---------------------------5-5-7-7--

D|-------6-7-6---------------5-5-7-7--

A|-9-7-9-------7-7-7--9-7-9--3-3-5-5--

E|------------------------------------

 

verse2:(Don't turn away, don't turn awayayay)

 

G|-9-7-9-7-9------------------------------------

D|-9-7-9-7-9-7-7-7-7-5-9-9-7-7-5-6-6-7-7--(9-7)-

A|-7-5-7-5-7-7-7-7-7-5-9-9-7-7-5-6-6-7-7--(9-7)-

E------------5-5-5-5-3-7-7-5-5-3-4-4-5-5--(7-5)-

 

Intro 2x

verse 2x

pre-verse 1x

verse2 2x

 

sad tunes riff:1x

e|-----------------------------

B|-----------------------------

G|-7-777-7-777-5-555-4-444-5:--

D|-7-777-7-777-5-555-4-444-5:--

A|-5-555-5-555-3-333-2-222-3:--

E|-0-----0-----0-----0-----0:--

 

solo 2

* * * * *

e|--------------------------

B|--------------------------

G|--------------------------

D|-------6-7-6--------------

A|-9-7-9-------7-7-7--9-7-9-

E|--------------------------

 

pm riff

e|----------------------2x

B|---------8-9----------

G|-11-9-11-8-9-9-9-9-9--

D|-11-9-11-6-7-9-9-9-9--

A|--9-7--9-----7-7-7-7--

E|----------------------

 

guitar 2 pm riff without 2x, lead pm riff 2x

 

lead pm riff without pm 2x

 

pre-verse 1x

verse2 2x

sad tunes riff

 

Utro thingy:

* * *

e|---------------

B|---------------

G|-9-7-9-7-5-7:--

D|-9-7-9-7-5-7:--

A|-7-5-7-5-3-5:--

E|---------------

 

Return to my to my Offspring tabs page

The Tablature is Copyright its respective owners.

Sign Up For My Newsletter
Subscribe | Unsubscribe

Site Map | Disclaimer | Privacy Policy | Media Kit | Submissions/Corrections

Website © 2000-2014 mattsmusicpage.com. All rights reserved.

Legal & DMCA: Matt's Music Page has been providing lyrics and tabs in a legal way, paying royalties each year to a few organizations. Then, all lyrics and tabs were removed from the site. Now, there's a new owner to the site, which purchased it August 26, 2014, and he is in negotiation to obtain licensing from BMI at the moment. If you have a specific DMCA request -- please do not hesitate to contact me via the contact button on top. I will do my very best to keep this site fully legal.

Get our toolbar!

 

VINTAGE SORRENTO MUSIC JEWELRY BOX
$45.0
VINTAGE SORRENTO MUSIC JEWELRY BOX picture


VINTAGE LACQUERED MUSIC BOX JAPAN
$25.99
VINTAGE LACQUERED MUSIC BOX JAPAN picture


Vintage Kehlsteinhaus Bavaria Germany Colorscope Cow Bell View Master Music Box
$8.99
Vintage Kehlsteinhaus Bavaria Germany Colorscope Cow Bell View Master Music Box picture


VINTAGE SCHMIDT Signed Collectible Musical Turning Clown
$9.99
VINTAGE  SCHMIDT Signed Collectible Musical Turning Clown picture


Vintage - Linen - Postcard - Stage - Radio City Music Hall - New York City
$3.75
Vintage - Linen - Postcard - Stage - Radio City Music Hall - New York City   picture