Your One-Stop Source For
Music Lyrics
Bass and Guitar Tabs
and More...
>Music Lyrics Bass and Guitar Tabs

 

The Tabs Are Below

Learn To Read Tab
Chords Handbook
Corrections & Additions
Get Official Tab
Offspring tabs @ 911Tabs

 

COME OUT AND PLAY

by Offspring

tabbed by ikswejahan@aol.com

Standard Tuning

 

Intro:(Drums)

e|------------|-------------|

B|------------|-------------|

G|------------|--9---9-9----|

D|------------|--9---9-9----|

A|------------|--7---7-7----|

E|------------|-------------|

 

e|-----------------||7-7-7-/12-12-12-\5-5-||

B|-----------------||7-7-7-/12-12-12-\5-5-||

G|-----------------||---------------------||

D|4-4-/7-----------||---------------------||

A|2-2-/5---0-4-0---||---------------------||

E|-----------2-----||---------------------||

 

PRETTY COOL RIFF

e|----------------------------|

B|----------------------------|

G|----------------------------|

D|----1h2-2h4p2-1-------------|

A|2h3-------------3-2---2-3-2-|

E|----------------------------|

Verse:(w/Palm muting) ("Like the latest fashion...")

e|----------------|----------------|

B|----------------|----------------|

G|----------------|----------------|

D|4-4-4-----------|4-4-4/7-7-------|

A|2-2-2-4-4-4/7---|2-2-2/5-5-0-4-0-|

E|------2-2-2/5---|------------2---|

 

("The gangs stake out...")

e|-------------------------------|

B|-------------------------------|

G|-------------------------------|

D|9---9-/12---12-12-11-11-11-7---|

A|7---7-/10---10-10--9--9--9-5---|

E|-------------------------------|

"Bash 'em up..." is F#5 (at the eleventh fret on the A string)

Chorus:

e|--------------|--------------|--------------|--------------------|

B|--------------|--------------|--------------|--------------------|

G|--------------|--------------|--------------|--------------------|

D|-4-4-/7-------|-4-4-/7-------|-4-4-/7-------|-4------------------|

A|-2-2-/5-0-4-0-|-2-2-/5-0-4-0-|-2-2-/5-0-4-0-|-2------------------|

E|----------2---|----------2---|----------2---|--------------------|

 

"You're under eighteen..." is E5 (seventh fret, A string) then C5

Hey, hey, Come out and play

e|------------|---------------|--------------|------------|

B|------------|---------------|--------------|------------|

G|------------|---------------|--------------|------------|

D|-4-/7-------|---------------|-4-4-/7-------|-4----------|

A|-2-/5-0-4-0-|-4----------/7-|-2-2-/5-0-4-0-|-2----------|

E|--------2---|-2----------/5-|----------2---|------------|

 

I'm pretty sure that's all of it. Send me requests. Also, if you would like to sign up

for my guitar tab mailing list let me know.

 

 

Return to my to my Offspring tabs page

The Tablature is Copyright its respective owners.

Sign Up For My Newsletter
Subscribe | Unsubscribe

Site Map | Disclaimer | Privacy Policy | Media Kit | Submissions/Corrections

Website © 2000-2014 mattsmusicpage.com. All rights reserved.

Legal & DMCA: Matt's Music Page has been providing lyrics and tabs in a legal way, paying royalties each year to a few organizations. Then, all lyrics and tabs were removed from the site. Now, there's a new owner to the site, which purchased it August 26, 2014, and he is in negotiation to obtain licensing from BMI at the moment. If you have a specific DMCA request -- please do not hesitate to contact me via the contact button on top. I will do my very best to keep this site fully legal.

Get our toolbar!

 

vintage silver pewter Rowe AMI Music miracle ashtrays
$20.0
vintage silver pewter Rowe AMI Music miracle ashtrays picture


Vintage Phantom of the Opera Snow Globe music box
$5.0
Vintage Phantom of the Opera Snow Globe music box picture


Vintage Baby Girl Ceramic Container - Japan - Giftwares Co Nancy Pew - Musical
$16.0
Vintage Baby Girl Ceramic Container - Japan - Giftwares Co Nancy Pew - Musical picture


Vintage Sankyo Clover Japan Key Chain Mini Music Box Engraved Egyptian Pattern
$9.99
Vintage Sankyo Clover Japan Key Chain Mini Music Box Engraved Egyptian Pattern  picture


Vintage Christmas Carolers Figurine Music Box Berman & Anderson Japan Plays NOEL
$8.0
Vintage Christmas Carolers Figurine Music Box Berman & Anderson Japan Plays NOEL picture