Your One-Stop Source For
Music Lyrics
Bass and Guitar Tabs
and More...
>Music Lyrics Bass and Guitar Tabs

 

The Tabs Are Below

Learn To Read Tab
Chords Handbook
Corrections & Additions
Get Official Tab
Offspring tabs @ 911Tabs

Offspring - Worst Hangover Ever

Submitted By: clark626

EMail: clark626@hotmail.com

 

 

Intro

G|---------------------------------------|

D|------------4444-1---------------------|2x (second time w/out the slide)

A|9\------1-4--------4-4-44---4----------|

E|---2-22-------------------4---7-77-6-4-|

 

G|-------------------6-66---6-4-44-3-1-|

D|----------4444-1--------6------------|

A|------1-4--------4-------------------|

E|-2-22--------------------------------|

 

G|-------------------------------------|

D|-4-44--------------------------------|

A|------6-4------1-4-4-44---4----------|

E|----------2-22----------4---7-77-6-4-|

 

Verse 4x

G|-------------------------------|

D|-------1-----------------------|

A|-----1---4---4-44---4----------|

E|-2-2--------------4---7777-6-4-|

 

Chorus

G|-------------------------------------|

D|----------4444-1---------------------|2x

A|------1-4--------4-4-44---4----------|

E|-2-22-------------------4---7-77-6-4-|

 

G|-------------------6-66---6-4-44-3-1-|

D|----------4444-1--------6------------|

A|------1-4--------4-------------------|

E|-2-22--------------------------------|

 

Post Chorus (da dada da da da)

G|-------------------------------------|

D|-4-44--------------------------------|

A|------6-4------1-4-4-44---4----------|

E|----------2-22----------4---7-77-6-4-|

 

-verse

-chorus

 

Bridge

G|-------------------------------------------|

D|-------------------------------------------|

A|-11111111-22222222---1-4---1-4---1-4---1-4-|

E|-------------------2-----2-----2-----2-----|

 

G|----------------------------|---------------|

D|---------------666----------|---------------|

A|----3-4-66-3-------4-66-3---|-4---4--4---9\-|

E|-44----------4------------4-|---------------|

 

-verse (w/out words)

-chorus

-post chorus

 

Outro

G|----------------------|

D|----------------------|

A|-11111111-22222222----|

E|-------------------2~-|

 

 

Return to my to my Offspring bass tabs page

The Tablature is Copyright its respective owners.

Sign Up For My Newsletter
Subscribe | Unsubscribe

Site Map | Disclaimer | Privacy Policy | Media Kit | Submissions/Corrections

Website © 2000-2014 mattsmusicpage.com. All rights reserved.

Legal & DMCA: Matt's Music Page has been providing lyrics and tabs in a legal way, paying royalties each year to a few organizations. Then, all lyrics and tabs were removed from the site. Now, there's a new owner to the site, which purchased it August 26, 2014, and he is in negotiation to obtain licensing from BMI at the moment. If you have a specific DMCA request -- please do not hesitate to contact me via the contact button on top. I will do my very best to keep this site fully legal.

Get our toolbar!

 

Antique Lux Heart Beat Waterbury / DeLuxe Wind Up Banjo Wall Clock
$48.89
Antique Lux Heart Beat Waterbury / DeLuxe Wind Up Banjo Wall Clock picture


Frog Banjo & Bass Fiddle Player Salt & Pepper Shakers - Japan
$4.99
Frog Banjo & Bass Fiddle Player Salt & Pepper Shakers - Japan picture


VINTAGE NORCREST #E-402 PLANTER-GIRL WITH BANJO
$22.99
VINTAGE NORCREST #E-402 PLANTER-GIRL WITH BANJO picture


THE BANJO PLAYER BY NORMAN ROCKWELL COLLECTORS PLATE
$10.0
THE BANJO PLAYER BY NORMAN ROCKWELL COLLECTORS PLATE picture


Large Cast Iron 'Banjo' Style Low Pressure Burner Set - heavy Still Burner?
$89.99
Large Cast Iron 'Banjo' Style Low Pressure Burner Set - heavy Still Burner? picture