Your One-Stop Source For
Music Lyrics
Bass and Guitar Tabs
and More...
Music Lyrics Bass and Guitar Tabs

 

The Tabs Are Below

Learn To Read Tab
Chords Handbook
Corrections & Additions
Get Official Tab
Offspring tabs @ 911Tabs

 

Way Down the Line, The Offspring

Album: Ixnay on the Hombre

 

Tabs by Adam R.

Boba_Fett2@Juno.com

 

>=slide

X=silence note immediately after playing

 

 

Intro

--------------------------

--------------------------

-5-----5-------5-----5>17-

----3-----3-5-----5-------

 

 

After the intro the guitar plays a few times by itself then bass and

drums come in together.

 

 

Verse 1

You play this for a second. Each time you play it, you wait for a second while the guitar plays alone. (play during "There is a chain...")

 

------------

---0-0---0X-

-3-----3----

------------

 

*If you want you can play along with the guitar for fun.

*You would just play:

 

 

*---0-0---0-0- *=Greg K. does not actually play

*-3-----3----- this part on the CD.

*-------------

*-------------

 

 

*And then tie it back to the part above it.

After a few times of Verse one go to a pre-chorus.

 

 

Pre-chorus (play at "An angry man...")

------------------------------------------------------------------------

------------------------------------------------------------------------

-3-5-5--5-5-5-5----------------5-5--5-5-5-5----------------5-5--5-5-5-5-

-----------------3-3--3-3-3-3----------------3-3--3-3-3-3---------------

 

-----------------

-----------------

-----------------

-3-3-3-3-5-5-5-5-

 

 

Then it's goes straight into the chorus.

 

 

Chorus

---------------------------------------------------------------------

---------------------------------------------------------------------

-5-5--5-5-5-5----------------5-5--5-5-5-5---------------5-5--5-5-5-5-

---------------3-3--3-3-3-3---------------3-3--3-5-5--5--------------

 

----------------

----------------

--------------5-

-5-5--5-5-5-5---

 

 

Let the last note of the Chorus ring a during the first part of the verse.

Then join in on the one right before "At seventeen..."

Play through the verse and another pre-chorus The play Chorus 2 which is

slightly different from the normal chorus.

 

 

Chorus 2

---------------------------------------------------------------------

---------------------------------------------------------------------

-5-5--5-5-5-5----------------5-5--5-5-5-5---------------5-5--5-5-5-5-

---------------3-3--3-3-3-3---------------3-3--3-5-5--5--------------

 

---------------------------------------------------------------------

--------------0-0--0-0-0--0-0-0-0-0--0-0-----------------------------

------------------------------------------5-5--5-5-5-5---------------

-5-5--5-5-5-5-------------------------------------------3-3--3-3-3-3-

 

---------------------------------------------------------------------

------------------------------------------------------0-0--0-0-0--0-0

-5-5--5-5-5-5---------------5-5--5-5-5-5-----------------------------

--------------3-3--3-5-5--5--------------5-5--5-5-5-5----------------

 

 

------------

-0-0-0--0-0-

------------

------------

 

 

Now tie Chorus 2 directly into a bridge.

 

 

Bridge ("and welfare moms")

---------------------------------------------------------------------

-3---5-----0-0---0X---0-0---0X---3---5-----0-0---0X---0-0---0X---3---

---------3-----3----3-----3----3---------3-----3----3-----3----3-----

---------------------------------------------------------------------

 

---------------------------------------

-5----------------------------3---5--7-

-----5-5-5-5-5-5--5-5-5-5-5-5----------

---------------------------------------

 

 

Go directly into Chorus 2 from the Bridge, but you have to cut it short.

Don't play the 0's on the D-string. Instead it goes straight into the

ending riff. Unfortunately at this time I haven't figured out the end

yet. So you're on your own their. When I figure it out I'll try and get

it posted. If you have any ideas, please E-mail me.

Return to my to my Offspring bass tabs page

The Tablature is Copyright its respective owners.

Sign Up For My Newsletter
Subscribe | Unsubscribe

Site Map | Disclaimer | Privacy Policy | Media Kit | Submissions/Corrections

Website © 2000-2014 mattsmusicpage.com. All rights reserved.

Legal & DMCA: Matt's Music Page has been providing lyrics and tabs in a legal way, paying royalties each year to a few organizations. Then, all lyrics and tabs were removed from the site. Now, there's a new owner to the site, which purchased it August 26, 2014, and he is in negotiation to obtain licensing from BMI at the moment. If you have a specific DMCA request -- please do not hesitate to contact me via the contact button on top. I will do my very best to keep this site fully legal.

Get our toolbar!

 

Hard Rock Pin Las Vegas 4th of july red white and blue guitar
$5.0
Hard Rock Pin Las Vegas 4th of july red white and blue guitar picture


Hard Rock Pin Hollywood Fl Bell Girl with dice luggage and guitar
$5.0
Hard Rock Pin Hollywood Fl Bell Girl with dice luggage and guitar picture


Hard Rock Pin Las Vegas King of Clubs Guitar rare only 3 lines of info on back
$5.0
Hard Rock Pin Las Vegas King of Clubs Guitar rare only 3 lines of info on back picture


Hard Rock Pin Edmonton guitar pin
$5.0
Hard Rock Pin Edmonton guitar pin picture


Lladro Guitar Boy #4614 - Beautiful Piece of Lladro
$109.0
Lladro Guitar Boy #4614 - Beautiful Piece of Lladro picture