Your One-Stop Source For
Music Lyrics
Bass and Guitar Tabs
and More...
Music Lyrics Bass and Guitar Tabs

 

The Tabs Are Below

Learn To Read Tab
Chords Handbook
Corrections & Additions
Get Official Tab
Offspring tabs @ 911Tabs

 

Burn it up

Offspring

 

 

 

Intro/Verse

E|----------------------------------------------------------------

B|----------------------------------------------------------------

G|*-------------------------------------------2-2-3p2-0-2h3p2-0-2-

D|*-2-2-3p2-0-2h3p2-0-2--2-2-3p2-0-2h3p2-0-2----------------------

A|----------------------------------------------------------------

E|----------------------------------------------------------------

 

-----------------------|

-----------------------|

----------------------*|

-2-2-3p2-0-2h3p2-0-2--*|

-----------------------|

-----------------------|

 

Pre-Chorus Chorus

E|-------------------||---------------------------|

B|-------------------||---------------------------|

G|*-9-9-9-8-7-7-7-8-*||*-2-2-2-2-5-5-5-5---------*|

D|*-9-9-9-8-7-7-7-8-*||*-2-2-2-2-5-5-5-5-2-2-2-2-*|

A|--7-7-7-6-5-5-5-6--||--0-0-0-0-3-3-3-3-2-2-2-2--|

E|-------------------||------------------0-0-0-0--|

 

Riff played through "So many houses, so little time" part

E|--------------------|

B|--------------------| Key: s - Slide

G|*-7-7s9-9-12-12s14-*| p - pull off

D|*-7-7s9-9-12-12s14-*| h - hammer on

A|--5-5s7-7-10-10s12--|

E|--------------------|

 

 

Return to my to my Offspring tabs page

The Tablature is Copyright its respective owners.

Sign Up For My Newsletter
Subscribe | Unsubscribe

Site Map | Disclaimer | Privacy Policy | Media Kit | Submissions/Corrections

Website © 2000-2014 mattsmusicpage.com. All rights reserved.

Legal & DMCA: Matt's Music Page has been providing lyrics and tabs in a legal way, paying royalties each year to a few organizations. Then, all lyrics and tabs were removed from the site. Now, there's a new owner to the site, which purchased it August 26, 2014, and he is in negotiation to obtain licensing from BMI at the moment. If you have a specific DMCA request -- please do not hesitate to contact me via the contact button on top. I will do my very best to keep this site fully legal.

Get our toolbar!

 

VINTAGE SORRENTO MUSIC JEWELRY BOX
$45.0
VINTAGE SORRENTO MUSIC JEWELRY BOX picture


VINTAGE LACQUERED MUSIC BOX JAPAN
$25.99
VINTAGE LACQUERED MUSIC BOX JAPAN picture


Vintage Kehlsteinhaus Bavaria Germany Colorscope Cow Bell View Master Music Box
$8.99
Vintage Kehlsteinhaus Bavaria Germany Colorscope Cow Bell View Master Music Box picture


VINTAGE SCHMIDT Signed Collectible Musical Turning Clown
$9.99
VINTAGE  SCHMIDT Signed Collectible Musical Turning Clown picture


Vintage - Linen - Postcard - Stage - Radio City Music Hall - New York City
$3.75
Vintage - Linen - Postcard - Stage - Radio City Music Hall - New York City   picture