Your One-Stop Source For
Music Lyrics
Bass and Guitar Tabs
and More...
Music Lyrics Bass and Guitar Tabs

 

The Tabs Are Below

Learn To Read Tab
Chords Handbook
Corrections & Additions
Get Official Tab
Offspring tabs @ 911Tabs

Offspring - Totalimmortal

Submitted By: clark626

EMail: clark626@hotmail.com

 

 

# main # >

G------------------------------------------------------->

D------------------------------------------------------->

A---------7-7-7---------5-5-5-------7-7-7---------5-5-5->

E---0-0-0-------3-3-3-3-------0-0-0-------3-3-3-3------->

>main

>-----------------------7-7-7---------------------------|

>-----------------------------5---7---------------------|

>---------7-7-7-----------------------7---7-7-7-7-7-7---|

>---0-0-0-------3-3-3-3---------------------------------|

:

# verse # X2 m=palm-mute *=play 13X

G-|----------------------------------------------|---END-1st-|---END-2nd-|

D-|----------------------------------------------|-----------|-----------|

A-|-77-7\---555----77-7\------555577-7\---555----|-----------|-*-----8---|

E-|------------3333--------333---------------3333|5-6-3-33333|7----------|

:

# pre-chorus # *=play 16X

G-------------------------------|

D----*-------*-------*----------|

A---7-------7-------7-------7---|

E-------------------------------|

:

# chorus #

G---------------------------------------------------------------|

D---------------------------------------------------------------|

A--/7-77-77-75-7-----------2-3-45-55-55-54-5-6-777555777--5-6---|

E----------------23-33-33-3-----------------------------33------|

:

# chorus-part2 #

G----------------------------------------------------------------|

D-------------------------------------------------444555777777---|

A---7-77-77-75-7-----------2-3-45-55-55-54-5-6-777---------------|

E----------------23-33-33-3--------------------------------------|

:

# main # >

G-----------------------------------9-9-9--------------->

D------------------------------------------------------->

A---------7-7-7---------5-5-5---------------------5-5-5->

E---0-0-0-------3-3-3-3-------0-0-0-------3-3-3-3------->

>main

>---------9-9-9---------7-7-7-----------------------|

>-----------------------------5---7-----------------| > Then play verseX2,

>-------------------------------------7---7-7-7-7---| pre-chorus, chorus and

>---0-0-0-------3-3-3-3-----------------------------| chorus-part2.

:

# bridge # 2:00

G--|----2X-----|--------------------2|X-------------------|----|

D--|-----------|--------------------------------/777------|----| > Then play

A--|55577557777|55577557777----55553555577557777--------88|----| chorus!

E--|-----------|-----------3333---------------------8888--|0---|

:

# chorus3-part2 #

G----------------------------------------------------------------|

D----------------------------------------------------------------|

A---7-77-77-75-7-----------2-3-45-55-55-54-5-6-777---------------|

E----------------23-33-33-3-----------------------222333555555---|

 

 

Return to my to my Offspring bass tabs page

The Tablature is Copyright its respective owners.

Sign Up For My Newsletter
Subscribe | Unsubscribe

Site Map | Disclaimer | Privacy Policy | Media Kit | Submissions/Corrections

Website © 2000-2014 mattsmusicpage.com. All rights reserved.

Legal & DMCA: Matt's Music Page has been providing lyrics and tabs in a legal way, paying royalties each year to a few organizations. Then, all lyrics and tabs were removed from the site. Now, there's a new owner to the site, which purchased it August 26, 2014, and he is in negotiation to obtain licensing from BMI at the moment. If you have a specific DMCA request -- please do not hesitate to contact me via the contact button on top. I will do my very best to keep this site fully legal.

Get our toolbar!