Your One-Stop Source For
Music Lyrics
Bass and Guitar Tabs
and More...
>Music Lyrics Bass and Guitar Tabs

 

The Tabs Are Below

Learn To Read Tab
Chords Handbook
Corrections & Additions
Get Official Tab
Offspring tabs @ 911Tabs

 

Something to Believe In, The Offspring (BASS)

Album: Smash (1994)

 

Intro:

G|-------------------------------------------|

D|-------------------------------------------|

A|--8---------------3-6-6-6-6-6---8-8-8-8-8--|

E|----1-3-4-4-4-4-4-------------6------------|

 

Verse:

G|---------------------------|

D|---------------------------|

A|----------6-6-1-1-1-1------|

E|--4-4-4-4-------------1-1--|

 

Chorus:

G|----------------|

D|----------------|

A|----8---6-11-6--|

E|--1---4---------|

 

Bass "solo": variation of intro:

G|---------------------------------------------------|

D|---------------------------------------------------|

A|--8-----------------------3-6-6-6-6-6---8-8-8-8-8--|

E|----1-1-1-1-1-3-4-4-4-4-4-------------6------------|

 

tabbed by Klaus Wojcicki (wojcicki@theoffspring.net)

Return to my to my Offspring bass tabs page

The Tablature is Copyright its respective owners.

Sign Up For My Newsletter
Subscribe | Unsubscribe

Site Map | Disclaimer | Privacy Policy | Media Kit | Submissions/Corrections

Website © 2000-2014 mattsmusicpage.com. All rights reserved.

Legal & DMCA: Matt's Music Page has been providing lyrics and tabs in a legal way, paying royalties each year to a few organizations. Then, all lyrics and tabs were removed from the site. Now, there's a new owner to the site, which purchased it August 26, 2014, and he is in negotiation to obtain licensing from BMI at the moment. If you have a specific DMCA request -- please do not hesitate to contact me via the contact button on top. I will do my very best to keep this site fully legal.

Get our toolbar!

 

OLD LARGE HISTORIC PHOTO OF THE ROLLING STONES, MICK JAGGER etc c1962
$5.0
OLD LARGE HISTORIC PHOTO OF THE ROLLING STONES, MICK JAGGER etc c1962 picture


MOJO MAGAZINE APRIL 2008 ROLLING STONES COVER MICK JAGGER KEITH RICHARDS NICE
$9.25
MOJO MAGAZINE APRIL 2008 ROLLING STONES COVER MICK JAGGER KEITH RICHARDS NICE picture


RRRARE ORIGINAL Official Rolling Stones Havana Cuba BACKSTAGE PASS AND ARMBAND
$299.99
RRRARE ORIGINAL Official Rolling Stones Havana Cuba BACKSTAGE PASS AND ARMBAND picture


17 Snapshots....Rolling Stones Backstage...San Bernardino Swing Auditorium..1964
$270.0
17 Snapshots....Rolling Stones Backstage...San Bernardino Swing Auditorium..1964 picture


VINTAGE BUDWEISER ROLLING STONES VOODOO LOUNGE TICKET KEYCHAIN
$5.99
VINTAGE BUDWEISER ROLLING STONES VOODOO LOUNGE TICKET KEYCHAIN picture