Your One-Stop Source For
Music Lyrics
Bass and Guitar Tabs
and More...
Music Lyrics Bass and Guitar Tabs

 

The Tabs Are Below

Learn To Read Tab
Chords Handbook
Corrections & Additions
Get Official Tab
Offspring tabs @ 911Tabs

 

Subject: Smash Bass Tabs

Artist: The Offspring

Album: Smash

Tabbed by Big JC (Member of the Bass Tab Archive Tabbing Army)

 

Here is The Offspring's Title track from the "Smash" album. This is a really

great song so play it with lots of feeling and with a pic.

Enough talkin' here it is.

 

#verse# x2

 

G|---------------------------------------------|

D|---------------------------------------------|

A|--8-8-8-8--3--4-4----------------------------|

E|----------------------4-6-6--6-6-6-8-8-8---8-|

 

 

#Pre-Chorus# x2 *=play 6x

G|-------------------|

D|--*-----*----------|

A|--8--3-4-----*---*-|

E|------------4-6--8-|

\_plam-Mute__/

 

#chorus#

G|-----------------------|

D|-----------------------|

A|-----6--4--6---6--4--3-|

E|--4-----------4--------|

 

 

#Bridge# x1 m=mute start playing when second guitar comes in.

G|-----------------------|

D|-----------------------|

A|-------3-4-4-4-3-------|

E|--1-1--------------4-3-|

 

#End-Bridge# m=mute

G|-----------------------------------------------------|

D|-----------------------------------------------------|

A|--8-8-8--6-6-6--4-4-4--4-4--6-6-6-6------------7-7-7-|

E|--m------m------m---------------------6-6-8-8-8------|

 

 

Play Pre-Chorus twice and then go into the chorus and play it as normal.

That's basically it.

This is a really great song so enjoy these tabs.

 

 

Return to my to my Offspring bass tabs page

The Tablature is Copyright its respective owners.

Sign Up For My Newsletter
Subscribe | Unsubscribe

Site Map | Disclaimer | Privacy Policy | Media Kit | Submissions/Corrections

Website © 2000-2014 mattsmusicpage.com. All rights reserved.

Legal & DMCA: Matt's Music Page has been providing lyrics and tabs in a legal way, paying royalties each year to a few organizations. Then, all lyrics and tabs were removed from the site. Now, there's a new owner to the site, which purchased it August 26, 2014, and he is in negotiation to obtain licensing from BMI at the moment. If you have a specific DMCA request -- please do not hesitate to contact me via the contact button on top. I will do my very best to keep this site fully legal.

Get our toolbar!

 

1939 LYRIC THEATRE New York PHOTO
$5.83
1939 LYRIC THEATRE New York PHOTO picture


Star Spangled Banner or Marines Hymn lyrics signed by WWII Charles W. Lindberg
$10.0
Star Spangled Banner or Marines Hymn lyrics signed by WWII Charles W. Lindberg picture


OLD LARGE HISTORIC PHOTO OF THE LYRIC THEATRE, SYDNEY c1930s, WAR BONDS BOOTH
$7.42
OLD LARGE HISTORIC PHOTO OF THE LYRIC THEATRE, SYDNEY c1930s, WAR BONDS BOOTH picture


SONG OF REVOLUTION CARD SET WITH 13 MOST FAVORED COMMUNIST SONGS LYRICS + NOTES
$24.99
SONG OF REVOLUTION CARD SET WITH 13 MOST FAVORED COMMUNIST SONGS LYRICS + NOTES picture


OLD LARGE HISTORIC PHOTO OF THE LYRIC THEATRE, SYDNEY c1930s, WAR LOANS BOOTH
$7.42
OLD LARGE HISTORIC PHOTO OF THE LYRIC THEATRE, SYDNEY c1930s, WAR LOANS BOOTH picture