Your One-Stop Source For
Music Lyrics
Bass and Guitar Tabs
and More...
Music Lyrics Bass and Guitar Tabs

 

The Tabs Are Below

Learn To Read Tab
Chords Handbook
Corrections & Additions
Get Official Tab
Offspring tabs @ 911Tabs

Offspring - The Noose

Submitted By: Metal_Finch

EMail: nu_metal89@hotmail.com

 

 

Standard Tuning: E A D G

 

Intro:

G|---------------------------------------------------------------------------|

D|------------------22222222----------00000000-22245542----------------------|

A|--7--7--7--7\2-------------------------------------------------------------|

E|---------------------------33333333----------------------------------------|

 

Verse:

G|---------------------------------------------------------------------------|

D|--2-2-2-0-2-2-2-0-----------------0-0-0---0-0-0-1--2-2-2-0-2-2-2-0---------|

A|----------------------------------------3----------------------------------|

E|------------------3-3-3-2-3-3-3-2------------------------------------------|

 

G|---------------------------------------------------------------------------|

D|--------------------00000000-----------------------------------------------|

A|---------------------------------------------------------------------------|

E|--00000000-33333333----------00000000-00000000-33333333-22222222-22222222--|

 

Chorus:

G|---------------------------------------------------------------------------|

D|--22222222----------00000000-22222222-22222222----------00000000-22222222--|

A|---------------------------------------------------------------------------|

E|-----------33333333----------------------------33333333--------------------|

 

1:34

G|-----------00000000----------------------------00000000--------------------|

D|--22222222----------00000000-22222222-22222222----------00000000-22222222--|

A|---------------------------------------------------------------------------|

E|---------------------------------------------------------------------------|

 

Bridge: 2:25

G|---------------------------------------------------------------------------|

D|--22222-------------00000----22222----22222-------------00000----22222-----|

A|---------------------------------------------------------------------------|

E|-----------55555-------------------------------55555-----------------------|

 

 

Return to my to my Offspring bass tabs page

The Tablature is Copyright its respective owners.

Sign Up For My Newsletter
Subscribe | Unsubscribe

Site Map | Disclaimer | Privacy Policy | Media Kit | Submissions/Corrections

Website © 2000-2014 mattsmusicpage.com. All rights reserved.

Legal & DMCA: Matt's Music Page has been providing lyrics and tabs in a legal way, paying royalties each year to a few organizations. Then, all lyrics and tabs were removed from the site. Now, there's a new owner to the site, which purchased it August 26, 2014, and he is in negotiation to obtain licensing from BMI at the moment. If you have a specific DMCA request -- please do not hesitate to contact me via the contact button on top. I will do my very best to keep this site fully legal.

Get our toolbar!