Your One-Stop Source For
Music Lyrics
Bass and Guitar Tabs
and More...
Music Lyrics Bass and Guitar Tabs

 

The Tabs Are Below

Learn To Read Tab
Chords Handbook
Corrections & Additions
Get Official Tab
Offspring tabs @ 911Tabs

Offspring - Never Gonna Find Me

Submitted By: Anavrin

EMail: joe_the_man3@hotmail.com

 

Album: Splinter (2003)

As tabbed by Joe Muggah

 

Tuned down 1/2 step

 

 

Verse

Gb|-------------------------------------------|

Db|-------------------------------------------|

Ab|--7-7-7----------------10-10---7-7-7-------|

Eb|----------5-5-5---8-8----------------------|

 

(continued)

Gb|-------------------------------------------|

Db|-------------------------------------------|

Ab|--7-7-7----------------10-10---7-7-7-------|

Eb|----------5-5-5---8-8----------------7-7-7-|

 

 

Chorus

Gb|---------------------------------------------------------|

Db|---------------------------------------------------------|

Ab|--7-7-7-7-7-7-7-7--10-10--5---7-7-7-7-7-7-7-7--10-10--5--|

Eb|---------------------------------------------------------|

 

(continued)

Gb|---------------------------------------------------------|

Db|---------------------------------------------------------|

Ab|--------------------------------------------3----5-------|

Eb|--0-0-0-0-0-0--3-3-3-3-3-3-3--5-5-5-5-5-5----------------|

 

 

Fill

Gb|------|

Db|------|

Ab|--7\--|

Eb|------|

 

 

Bridge 1

Gb|----------------------------------------------|

Db|----------------------------------------------|

Ab|--7-7-7---------------------------------------|

Eb|----------5-5----8-8-8-8---0-0-0-0-0-0-0-0----|

 

Bridge 2

Gb|---------------------------------------------------------|

Db|---------------------------------------------------------|

Ab|--7-7--7--7----------------------------------------------|

Eb|--------------5-5--5--5--8-8--8--8--0-0-0-0-0-0-0-0------|

 

Outro

Gb|---------------------------------------------------------|

Db|---------------------------------------------------------|

Ab|--7-7-7-7-7----------------------------------------------|

Eb|---------------5-5-5-5-5----8-8-8-8-8----0-0-0-0-0-------|

 

 

Verse

Chorus

Fill

Verse

Chorus

Fill

Bridge 1

Bridge 2

Outro

 

 

Downloaded from www.taborama.com

 

================================================================================

 

 

Artist: The Offspring

Song: Never Gonna Find Me

Album: Splinter

Bassist: Greg K.

Tuning: Standard

 

Verse

G|-------------------------------------|------|

D|-------------------------4444--------|------|

A|--66666666----------2222------666666-|------|

E|-----------44444444------------------|-6666-|

 

Chorus2x /2x\

G|-------------------|--------------------------------------|----|

D|---------4-44------|--------------------------------------|----|

A|-6666666------4-44-|-66666666-------------------22-2-44-4-|-6\-|

E|-------------------|----------22222222-44444444-----------|----|

 

-verse

-chorus

 

Bridge/ending 2x

G|------------------|

D|------------------|

A|-666----2222-6666-|

E|-----44-----------|

 

G|-------------------------------------------|

D|-------------------------------------------|2x

A|66-66-6-66------------22-22-2-22-6666-4/66-|

E|-----------44-44-4-44----------------------|

 

(repeat until bass stops)

G|--------------------------------------|

D|--------------------------------------|

A|-66666666----------22222222-666666666-|

E|----------44444444--------------------|

 

 

Return to my to my Offspring bass tabs page

The Tablature is Copyright its respective owners.

Sign Up For My Newsletter
Subscribe | Unsubscribe

Site Map | Disclaimer | Privacy Policy | Media Kit | Submissions/Corrections

Website © 2000-2014 mattsmusicpage.com. All rights reserved.

Legal & DMCA: Matt's Music Page has been providing lyrics and tabs in a legal way, paying royalties each year to a few organizations. Then, all lyrics and tabs were removed from the site. Now, there's a new owner to the site, which purchased it August 26, 2014, and he is in negotiation to obtain licensing from BMI at the moment. If you have a specific DMCA request -- please do not hesitate to contact me via the contact button on top. I will do my very best to keep this site fully legal.

Get our toolbar!

 

Hard Rock Pin Las Vegas 4th of july red white and blue guitar
$5.0
Hard Rock Pin Las Vegas 4th of july red white and blue guitar picture


Hard Rock Pin Hollywood Fl Bell Girl with dice luggage and guitar
$5.0
Hard Rock Pin Hollywood Fl Bell Girl with dice luggage and guitar picture


Hard Rock Pin Las Vegas King of Clubs Guitar rare only 3 lines of info on back
$5.0
Hard Rock Pin Las Vegas King of Clubs Guitar rare only 3 lines of info on back picture


Hard Rock Pin Edmonton guitar pin
$5.0
Hard Rock Pin Edmonton guitar pin picture


Lladro Guitar Boy #4614 - Beautiful Piece of Lladro
$109.0
Lladro Guitar Boy #4614 - Beautiful Piece of Lladro picture