Your One-Stop Source For
Music Lyrics
Bass and Guitar Tabs
and More...
Music Lyrics Bass and Guitar Tabs

 

The Tabs Are Below

Learn To Read Tab
Chords Handbook
Corrections & Additions
Get Official Tab
Offspring tabs @ 911Tabs

 

"Meaning of Life"

 

 

Intro

Play fast

* play about 4

 

G----7*---10-7-----10*--10-7--12*\13/12------

D-----------------10---------------------------------

A-------------------------------------------------------- Part one

E-------------------------------------------------------

 

 

G------------------------------------------------

D-----------------------------------------------

A-5*----8---3--\5------------------------------- Part two

E------------------------------------

 

Then play part one

 

* x8

 

G------------------------

D--------------------------

A---8*---9*-----8-------

E---------------------8-

 

* X4

 

G-------------------------

D------------------------

A-5*-8-5-3\5--------- Part 3 play X4

E--------------------

 

 

Verse

** X16 *X8

G--------------------------------------

D--------------------------------------- Play once (just bass drums and

singing)

A--5**--7-8**------------------------- then play again with guitar

E----------------8**--6*-5555-8-5

 

 

Chorus

 

G--------------------------------

D--------------------------------

A-5*-------------8888-8-----

E------6*----8*------------8-5

 

G------------------------------

D-------------------------------

A-5*-------------------------

E-----6*--8*-5555-8-5---

 

G----------------------------------------------------

D-----------------------------------------------------

A--5*--------8888-8---------------8------8-----8

E-----6*--8*----------8---6*-8*------8------8

("thanks but no thanks" part)

 

Back to intro

Verse

Chorus

 

then there is this

*X4

G-----------------

D--------8*-10*-------

A---5*------------8* play that a few times

E--------------------

 

*X8

G----------------------

D------------------------

A---------8-----8---8

E----6*-----8----8---------

 

back to chorus

then back to intro for the outro

 

Please E-Mail me if you have a problem playing it.

I would be happy to help. I is not a easy song to play.

 

 

 

 

 

Return to my to my Offspring bass tabs page

The Tablature is Copyright its respective owners.

Sign Up For My Newsletter
Subscribe | Unsubscribe

Site Map | Disclaimer | Privacy Policy | Media Kit | Submissions/Corrections

Website © 2000-2014 mattsmusicpage.com. All rights reserved.

Legal & DMCA: Matt's Music Page has been providing lyrics and tabs in a legal way, paying royalties each year to a few organizations. Then, all lyrics and tabs were removed from the site. Now, there's a new owner to the site, which purchased it August 26, 2014, and he is in negotiation to obtain licensing from BMI at the moment. If you have a specific DMCA request -- please do not hesitate to contact me via the contact button on top. I will do my very best to keep this site fully legal.

Get our toolbar!

 

VINTAGE SORRENTO MUSIC JEWELRY BOX
$45.0
VINTAGE SORRENTO MUSIC JEWELRY BOX picture


VINTAGE LACQUERED MUSIC BOX JAPAN
$25.99
VINTAGE LACQUERED MUSIC BOX JAPAN picture


Vintage Kehlsteinhaus Bavaria Germany Colorscope Cow Bell View Master Music Box
$8.99
Vintage Kehlsteinhaus Bavaria Germany Colorscope Cow Bell View Master Music Box picture


VINTAGE SCHMIDT Signed Collectible Musical Turning Clown
$9.99
VINTAGE  SCHMIDT Signed Collectible Musical Turning Clown picture


Vintage - Linen - Postcard - Stage - Radio City Music Hall - New York City
$3.75
Vintage - Linen - Postcard - Stage - Radio City Music Hall - New York City   picture