Your One-Stop Source For
Music Lyrics
Bass and Guitar Tabs
and More...
Music Lyrics Bass and Guitar Tabs

 

The Tabs Are Below

Learn To Read Tab
Chords Handbook
Corrections & Additions
Get Official Tab
Offspring tabs @ 911Tabs

Offspring - I Wanna Be Sedated

Submitted By: clark626

EMail: clark626@hotmail.com

 

 

# intro # X2 # verse # X2 *=play 8X

G-------------------------------------| G----*-------*------2--------*--|

D---2-2-2-2-2-2-2-2-2-2-2-2-2-2-2-2---| D---2-------2---------------2---|

A-------------------------------------| A-------------------------------|

E-------------------------------------| E-------------------------------|

:

# chorus # !play all notes 8X!

G---4---------------4---------------4---------------2-------4---|

D-----------2---------------2---------------2-------------------|

A---------------------------------------------------------------|

E---------------------------------------------------------------|

:

Then play intro, verseX2 and chorus.

:

# bridge # X2 !play all notes 8X!

G-------------------------------|

D---2-----------------------2---| > Then play intro.

A-----------0-------2-----------|

E-------------------------------|

:

# verse # X2 *=play 8X

G----*-------*------4--------*--|

D---4-------4---------------4---|

A-------------------------------|

E-------------------------------|

:

# chorus # !play all notes 8X!

G---6---------------6---------------6---------------4-------6---|

D-----------4---------------4---------------4-------------------|

A---------------------------------------------------------------|

E---------------------------------------------------------------|

:

# mid-line #

G-------------------------------------|

D---4-4-4-4-4-4-4-4-4-4-4-4-4-4-4-4---| > Then play verseX2 and chorus.

A-------------------------------------|

E-------------------------------------|

:

# bridge # X4 !play all notes 8X! !end with first note!

G-------------------------------|

D---4-----------------------4---|

A-----------2-------4-----------|

E-------------------------------|

 

 

Return to my to my Offspring bass tabs page

The Tablature is Copyright its respective owners.

Sign Up For My Newsletter
Subscribe | Unsubscribe

Site Map | Disclaimer | Privacy Policy | Media Kit | Submissions/Corrections

Website © 2000-2014 mattsmusicpage.com. All rights reserved.

Legal & DMCA: Matt's Music Page has been providing lyrics and tabs in a legal way, paying royalties each year to a few organizations. Then, all lyrics and tabs were removed from the site. Now, there's a new owner to the site, which purchased it August 26, 2014, and he is in negotiation to obtain licensing from BMI at the moment. If you have a specific DMCA request -- please do not hesitate to contact me via the contact button on top. I will do my very best to keep this site fully legal.

Get our toolbar!