Your One-Stop Source For
Music Lyrics
Bass and Guitar Tabs
and More...
Music Lyrics Bass and Guitar Tabs

 

The Tabs Are Below

Learn To Read Tab
Chords Handbook
Corrections & Additions
Get Official Tab
Offspring tabs @ 911Tabs

 

"It'll Be A long TIme"

 

 

Verse X2

 

G-----------------------------------------------

D-------------------------------------------------

A-->5-5----->5-5-----3-3-------5-5-5-5---

E------------------------------3-3----------------

 

Verse X1

 

G--------------------------------------------------------

D---------------------------------------------------------

A--->5-5-5555-->5-5-5555--3-3 ------5-5-5-5

E-----------------------------------------3-3------------

 

Bridge

G--------------------------------------------------------

D---------------------------------------------------------

A-->5-5-5555-->5-5-5555--3-3------------------

E-----------------------------------------3-3---5-5-5-5

 

Chorus

G------------------------------------------------

D-----------------------------------------------

A--5-5--8-8------5-5--------------8-----5-5 X2

E--------------8-8------7-7--8-8------8------

 

Chorus 2

G--------------------------------------

D-----------------------------------------

A---------------8--------5-5---------- X1

E---7-7-8-8--------8-------------------

 

Bridge2

G-----------------------------

D------------------------------

A-----5-HOLD-------------

E------------------5-HOLD

 

Verse

Bridge

Chorus

Chorus 2 X2

 

Break

 

G-----------------------------------

D---------------------------------- X6

A--5-5--3-3---------------5-5

E-------------------3-3------------

 

G-----------------------------------------------

D-----------------------------------------------

A--5-5-5-5---3-3-3-3-------------5-5-5-5 X4

E--------------------------3-3-3-3-----------

 

Verse

Bridge

Chorus

Chorus 2 X1

Bridge 2

Verse

 

Thats that, have fun!!!!!!

 

 

 

 

 

Return to my to my Offspring bass tabs page

The Tablature is Copyright its respective owners.

Sign Up For My Newsletter
Subscribe | Unsubscribe

Site Map | Disclaimer | Privacy Policy | Media Kit | Submissions/Corrections

Website © 2000-2014 mattsmusicpage.com. All rights reserved.

Legal & DMCA: Matt's Music Page has been providing lyrics and tabs in a legal way, paying royalties each year to a few organizations. Then, all lyrics and tabs were removed from the site. Now, there's a new owner to the site, which purchased it August 26, 2014, and he is in negotiation to obtain licensing from BMI at the moment. If you have a specific DMCA request -- please do not hesitate to contact me via the contact button on top. I will do my very best to keep this site fully legal.

Get our toolbar!