Your One-Stop Source For
Music Lyrics
Bass and Guitar Tabs
and More...
Music Lyrics Bass and Guitar Tabs

 

The Tabs Are Below

Learn To Read Tab
Chords Handbook
Corrections & Additions
Get Official Tab
Offspring tabs @ 911Tabs

Offspring - Huck It

Submitted By: clark626

EMail: clark626@hotmail.com

 

 

INTRO/BRIDGE

 

G]-----------------------------------|

D]-----------------------------------|

A]-577757775777577757775777577757775-|

E]-----------------------------------|

 

VERSE

 

G]-----------------------------------|

D]-----------------------------------|

A]-77-10-9-10-7-10-9-10-5------------|

E]------------------------3-33333-55-|

 

ONLY PLAY THIS ON LAST VERSE

 

G]--------------------------------------|

D]--------------------------------------|

A]-77-10-9-10-7-10-9-10-5-5-5-5-5-5-5-5-|

E]--------------------------------------|

 

CHORUS

 

G]-----------------------------------------------------|

D]-----------------------------------------------------|

A]------5-7-5------55-------5-7-5-------55-------5-----|

E]3-3-3-------7777----3-3-3-------77777----77777---7-5-|

 

2ND BRIDGE

 

G]-----------------------------------|

D]-----------------------------------|

A]---------------------5-------------|

E]-0-0-3-2-3-0-----3-2---3-333-33-55-|

 

G]-------------------------------------|

D]-------------------------------------|

A]---------------------5-5-5-5-5-5-5-5-|

E]-0-0-3-2-3-0-----3-2-----------------|

 

END NOTE

 

G]-------|

D]-------|

A]-7-----|

E]-------|

 

 

Return to my to my Offspring bass tabs page

The Tablature is Copyright its respective owners.

Sign Up For My Newsletter
Subscribe | Unsubscribe

Site Map | Disclaimer | Privacy Policy | Media Kit | Submissions/Corrections

Website © 2000-2014 mattsmusicpage.com. All rights reserved.

Legal & DMCA: Matt's Music Page has been providing lyrics and tabs in a legal way, paying royalties each year to a few organizations. Then, all lyrics and tabs were removed from the site. Now, there's a new owner to the site, which purchased it August 26, 2014, and he is in negotiation to obtain licensing from BMI at the moment. If you have a specific DMCA request -- please do not hesitate to contact me via the contact button on top. I will do my very best to keep this site fully legal.

Get our toolbar!