Your One-Stop Source For
Music Lyrics
Bass and Guitar Tabs
and More...
Music Lyrics Bass and Guitar Tabs

 

The Tabs Are Below

Learn To Read Tab
Chords Handbook
Corrections & Additions
Get Official Tab
Offspring tabs @ 911Tabs

Offspring - Hit That

Submitted By: Anavrin

EMail: joe_the_man3@hotmail.com

Album: Splinter (2003)

As tabbed by Joe Muggah

 

 

Riff

G|--------------------------------|

D|--------------------------------|

A|--------------------------------|

E|--3---5---0--0--0---------------|

 

 

Verse

G|------------------------------------------------------------|

D|------------------------------------------------------------|

A|------------------------------------------------------------|

E|--0-10h12-0-10h12-0-10h12-0-10h12-0-10h12-0-10h12--7-6-5-3--|

 

 

Chorus

G|------------------------------------------------------------|

D|----2---2---2---2---2---2---2---2---5---5---5---5-----------|

A|------------------------------------------------------------|

E|--0---0---0---0---0---0---0---0---3---3---3---3-------------|

 

(continued)

G|--------------------------------|

D|----7---7---7---7---------------|

A|--------------------------------|

E|--5---5---5---5-----------------|

 

 

Post-Chorus

G|------------------------------------5---5---5---5-----------|

D|----2---2---2---2---2---2---2---2-------------------7---7---|

A|----------------------------------3---3---3---3-------------|

E|--0---0---0---0---0---0---0---0-------------------5---5-----|

 

(continued)

G|----------------------------4---4---4---4-------------------|

D|----7---7---2---2---2---2-----------------------------------|

A|--------------------------2---2---2---2---------------------|

E|--5---5---0---0---0---0--------------------3---5---0--0--0--|

 

 

Riff

Verse

Chorus

Post-Chorus

Verse

Chorus

Post-Chorus

Verse

Chorus

Post-Chorus

 

 

Return to my to my Offspring bass tabs page

The Tablature is Copyright its respective owners.

Sign Up For My Newsletter
Subscribe | Unsubscribe

Site Map | Disclaimer | Privacy Policy | Media Kit | Submissions/Corrections

Website © 2000-2014 mattsmusicpage.com. All rights reserved.

Legal & DMCA: Matt's Music Page has been providing lyrics and tabs in a legal way, paying royalties each year to a few organizations. Then, all lyrics and tabs were removed from the site. Now, there's a new owner to the site, which purchased it August 26, 2014, and he is in negotiation to obtain licensing from BMI at the moment. If you have a specific DMCA request -- please do not hesitate to contact me via the contact button on top. I will do my very best to keep this site fully legal.

Get our toolbar!