Your One-Stop Source For
Music Lyrics
Bass and Guitar Tabs
and More...
Music Lyrics Bass and Guitar Tabs

 

The Tabs Are Below

Learn To Read Tab
Chords Handbook
Corrections & Additions
Get Official Tab
Offspring tabs @ 911Tabs

Offspring - Crossroads

Submitted By: dexterkwasserron

EMail: dexterkwasserron@charter.net

Album: Offspring

Transcribed by: Pat

 

 

there was already a tab here but it was wrong and missing parts and i just couldnt stand it

so here it is right and complete so enjoy

 

INTRO

------------------------------------------------------------------------------

-12--------12/0--------0------------------------------------------------------

------------------------------------------------------------------------------

------------------------------------------------------------------------------

 

 

RIFF 1 END 1 END 2

-7-7-7-7-7/9-10-10-14-14-14-13-13-13-9-9-9-9-9-9-|------|---------------------

-0-0-0-0-0-0-0--0--0--0--0--0--0--0--0-0-0-0-0-0-|------|----------------7----

-------------------------------------------------|-1-0--|1-1-1-1-1-1-1-1------

-------------------------------------------------|------|---------------------

 

 

VERSE

------------------------------------------------------------------------------

------------------------------------------------------------------------------

-5-8-7-6-5-8-7-6-3-3-3-3-3-0-0-0-0-0-1-1-1-1-1-----------0-0-0-0-0-0-0-0-0-0--

-----------------------------------------------3-3-3-3-3----------------------

 

 

CHORUS (X2)

------------------------------------------------------------------------------

-----------------------3-3-3--------------------------------------------------

-------3-3-3-5-5-5-5-5-------3-3-3-5-5-5-5-5----------------------------------

-1-1-1------------------------------------------------------------------------

 

 

ALTERNATE VERSE (DURING SOLO)

------------------------------------------------------------------------------

------------------------------------------------------------------------------

-5-8-7-6-5-8-7-6-3-3-3-3-3-0-0-0-0-0-1-1-1-1-1-10-10-10-10-10-12-12-12-12-12--

------------------------------------------------------------------------------

 

 

BRIDGE 1

------------------------------------------------------------------------------

------------------------------------------------------------------------------

-8-8-10-8-7-5-8-8-8---5-8-8-10-8-7-5-8----------------------------------------

--------------------8------------------8--------------------------------------

 

 

BRIDGE 2

------------------------------------------------------------------------------

------------------------------------------------------------------------------

-5-5-5-5-5-5-5-5-5-5-5---------5-5-8-7---3-5----------------------------------

-----------------------5-5-5-----------5--------------------------------------

 

INTRO

RIFF 1

VERSE

CHORUS

VERSE

CHORUS

ALTERNATE VERSE

BRIDGE 1

BRIDGE 2

RIFF 1

VERSE

CHORUS

 

 

Return to my to my Offspring bass tabs page

The Tablature is Copyright its respective owners.

Sign Up For My Newsletter
Subscribe | Unsubscribe

Site Map | Disclaimer | Privacy Policy | Media Kit | Submissions/Corrections

Website © 2000-2014 mattsmusicpage.com. All rights reserved.

Legal & DMCA: Matt's Music Page has been providing lyrics and tabs in a legal way, paying royalties each year to a few organizations. Then, all lyrics and tabs were removed from the site. Now, there's a new owner to the site, which purchased it August 26, 2014, and he is in negotiation to obtain licensing from BMI at the moment. If you have a specific DMCA request -- please do not hesitate to contact me via the contact button on top. I will do my very best to keep this site fully legal.

Get our toolbar!

 

Hard Rock Pin Las Vegas 4th of july red white and blue guitar
$5.0
Hard Rock Pin Las Vegas 4th of july red white and blue guitar picture


Hard Rock Pin Hollywood Fl Bell Girl with dice luggage and guitar
$5.0
Hard Rock Pin Hollywood Fl Bell Girl with dice luggage and guitar picture


Hard Rock Pin Las Vegas King of Clubs Guitar rare only 3 lines of info on back
$5.0
Hard Rock Pin Las Vegas King of Clubs Guitar rare only 3 lines of info on back picture


Hard Rock Pin Edmonton guitar pin
$5.0
Hard Rock Pin Edmonton guitar pin picture


Lladro Guitar Boy #4614 - Beautiful Piece of Lladro
$109.0
Lladro Guitar Boy #4614 - Beautiful Piece of Lladro picture