Your One-Stop Source For
Music Lyrics
Bass and Guitar Tabs
and More...
>Music Lyrics Bass and Guitar Tabs

 

The Tabs Are Below

Learn To Read Tab
Chords Handbook
Corrections & Additions
Get Official Tab
Offspring tabs @ 911Tabs

Offspring - Conspiracy of One

Submitted By: Anavrin

EMail: joe_the_man3@hotmail.com

Album: Conspiracy of One

As tabbed by Joe Muggah

 

 

Riff

G|----------------------------------------------------------|

D|----------------------------------------------------------|

A|--5-5--3-5-5--3-5-5--3-1--3---5-5--3-5-5--3-5-5--3-1--3---|

E|----------------------------------------------------------|

 

 

Verse

G|----------------------------------------------------------|

D|----------------------------------------------------------|

A|--5---7--8--5--------3--3-3-3--------1--1-1-1-1--3-3-3-3--|

E|---------------1--1------------1--1-----------------------|

 

(continued)

G|----------------------------------------------------------|

D|----------------------------------------------------------|

A|--5-5--3-5-5--3-5-5--3-1--3---5-5--3-5-5--3-5-5--3-1--3---|

E|----------------------------------------------------------|

 

(continued)

G|----------------------------------------------------------|

D|----------------------------------------------------------|

A|--5---7--8--5--------3--3-3-3--------1--1-1-1-1--3-3-3-3--|

E|---------------1--1------------1--1-----------------------|

 

(continued)

G|-------------------------------|

D|-------------------------------|

A|--5-5--3-5-5--3-5--------------|

E|-------------------------------|

 

 

Chorus

G|----------------------------------------------------------|

D|----------------------------------------------------------|

A|--5-5--7--8--3-3--3-----3---5-5--7--8--3-3--3-----3-------|

E|---------------------3-------------------------3----------|

 

(continued)

G|----------------------------------------------------------|

D|----------------------------------------------------------|

A|--5-5--7--8--3-3--3-----3---1-/-13-13-13-13-13--\---------|

E|---------------------3------------------------------------|

 

 

Bridge 1

G|----------------------------------------------------------|

D|----------------------------------------------------------|

A|--5-5--5--5--5-7--5-8----1-1--1--1------------------------|

E|------------------------------------1--3--1-3-------------|

 

 

Bridge 2

G|----------------------------------------------------------|

D|--------------------------------------------5--3----------|

A|--5-5--5--5--5-7--5--8--8--1-1--1--1----------------5-5---|

E|--------------------------------------1--3----------------|

 

(continued)

G|----------------------------------------------------------|

D|---------------------------------------5-5-5-5-5-5-5-5----|

A|--5--5--5-7--5--8--8--------------------------------------|

E|----------------------6-6-6-6-6-6-6-6---------------------|

 

 

Riff

Verse

Chorus

Riff

Verse

Chorus

Bridge 1

Bridge 2

Chorus

 

 

Return to my to my Offspring bass tabs page

The Tablature is Copyright its respective owners.

Sign Up For My Newsletter
Subscribe | Unsubscribe

Site Map | Disclaimer | Privacy Policy | Media Kit | Submissions/Corrections

Website © 2000-2014 mattsmusicpage.com. All rights reserved.

Legal & DMCA: Matt's Music Page has been providing lyrics and tabs in a legal way, paying royalties each year to a few organizations. Then, all lyrics and tabs were removed from the site. Now, there's a new owner to the site, which purchased it August 26, 2014, and he is in negotiation to obtain licensing from BMI at the moment. If you have a specific DMCA request -- please do not hesitate to contact me via the contact button on top. I will do my very best to keep this site fully legal.

Get our toolbar!

 

M43-020 '68 "FAUST" @ LYRIC THEATRE NICOLAI GHIAUROV 4"x5" ORIGINAL NEG.
$9.99
M43-020 '68


WWII Army Songbook 1941 Piano Sheet Music + Guitar Ukelele Chords + Full Lyrics
$15.0
WWII Army Songbook 1941 Piano Sheet Music + Guitar Ukelele Chords + Full Lyrics picture


1115Q VINTAGE BLOTTER LYRIC THEATRE MANCHESTER NH FIGHTING BLOOD H C WITWER'S
$6.73
1115Q VINTAGE BLOTTER LYRIC THEATRE MANCHESTER NH FIGHTING BLOOD H C WITWER'S picture


Original DOUBLEWEIGHT Photo by Kenneth Heilbron ballet rehearsal lyric opera
$85.0
Original DOUBLEWEIGHT Photo by Kenneth Heilbron ballet rehearsal lyric opera picture


BLACK AND BLUE LIFE LYRICS ANDY RAZAF Barry Singer 1995 tpb 1st Historic Photos
$7.5
BLACK AND BLUE  LIFE LYRICS ANDY RAZAF Barry Singer 1995 tpb 1st Historic Photos picture