Your One-Stop Source For
Music Lyrics
Bass and Guitar Tabs
and More...
Music Lyrics Bass and Guitar Tabs

 

The Tabs Are Below

Learn To Read Tab
Chords Handbook
Corrections & Additions
Get Official Tab
Offspring tabs @ 911Tabs

 

Bass TAB for Burn it Up by the Offspring

from Igniton

Submitted and tabbed by Dave Lake (SidVicious_98@yahoo.com)

 

 

Intro 2X

G--------------------------------

D--------------------------------

A--------------------------------

E-0-0-0-0-r-r-r-r-0-0-0-0-r-r-r-r

 

G---------

D---------

A-0-0-0-0-

E---------

 

Verse 2x

G--------------------- ----------------------

D--------------------- -7-7-8-7-7------------

A-7-7-8-7-7----------- ----------7*-7*-7*-7*-

E----------7*-7*-7*-7* ----------------------

 

G----------------------

D----------------------

A-7-7-8-7-7------------ * sixteenth nts.

E----------7*-7*-7*-7*-

 

Pre Chorus

G----------------------------------

D----------------------------------

A-7-7-5-5-5-7-7-7-5-5-5-7-7-7-5-5-7

E----------------------------------

 

Chorus 4X

G-----------------

D-7-7-------------

A----5-5-7-7-7-7-7

E-----------------

 

Verse (without 16ths first couple of times)

 

Chorus

 

Bridge

G---------------------------------

D---------------------------------

A-7-7-5-5-5-0-0-7-7-10-10-10-12-12

E---------------------------------

 

Repeat until pre chorus

 

 

Questions, Comments, Corrections, any of that crap

e-mail me at: SidVicious_98@yahoo.com

 

Return to my to my Offspring bass tabs page

The Tablature is Copyright its respective owners.

Sign Up For My Newsletter
Subscribe | Unsubscribe

Site Map | Disclaimer | Privacy Policy | Media Kit | Submissions/Corrections

Website © 2000-2014 mattsmusicpage.com. All rights reserved.

Legal & DMCA: Matt's Music Page has been providing lyrics and tabs in a legal way, paying royalties each year to a few organizations. Then, all lyrics and tabs were removed from the site. Now, there's a new owner to the site, which purchased it August 26, 2014, and he is in negotiation to obtain licensing from BMI at the moment. If you have a specific DMCA request -- please do not hesitate to contact me via the contact button on top. I will do my very best to keep this site fully legal.

Get our toolbar!