Your One-Stop Source For
Music Lyrics
Bass and Guitar Tabs
and More...
>Music Lyrics Bass and Guitar Tabs

 

The Tabs Are Below

Learn To Read Tab
Chords Handbook
Corrections & Additions
Get Official Tab
Offspring tabs @ 911Tabs

Offspring - Autonomy

Submitted By: clark626

EMail: clark626@hotmail.com

 

 

Intro

G|-------------------|

D|-------------------|

A|--------4-------4--|

E|-2-2-2-2-2-2-2-2---|

 

Verse Going into Chorus

G|----------------------------------|-----------------|

D|----------------------------------|-----------------|

A|----------22--------------22------|-----------------|

E|-2-2-2222----222-2-2-2222----2-22-|---22-2222-2-2---|

 

Chorus

G|--------------------------------------------------------------------------|

D|--------------------------------------------------------------------------|

A|------5--------5--------7--------7--------9--------9--------9--------9----|

E|-3-33---3-3333---3/5-55---5-5555---5/7-77---7-7777---7-7777---7-7777---7--|

 

 

Return to my to my Offspring bass tabs page

The Tablature is Copyright its respective owners.

Sign Up For My Newsletter
Subscribe | Unsubscribe

Site Map | Disclaimer | Privacy Policy | Media Kit | Submissions/Corrections

Website © 2000-2014 mattsmusicpage.com. All rights reserved.

Legal & DMCA: Matt's Music Page has been providing lyrics and tabs in a legal way, paying royalties each year to a few organizations. Then, all lyrics and tabs were removed from the site. Now, there's a new owner to the site, which purchased it August 26, 2014, and he is in negotiation to obtain licensing from BMI at the moment. If you have a specific DMCA request -- please do not hesitate to contact me via the contact button on top. I will do my very best to keep this site fully legal.

Get our toolbar!

 

Japanes Gofun Doll- Geisha w/ Drum
$65.0
Japanes Gofun Doll- Geisha w/ Drum picture


Vintage 80s PHOTO Young Musician Guy Playing Drums Drummer
$5.0
Vintage 80s PHOTO Young Musician Guy Playing Drums Drummer picture


1970's era. Chi-Com issue 7.62 X 39 - 75 ROUND Drum Mag Pouch-UNISSUED CONDITION
$10.99
1970's era. Chi-Com issue 7.62 X 39 - 75 ROUND Drum Mag Pouch-UNISSUED CONDITION picture


Generic Scout Exposition Big Base Drum Marching Band
$2.5
Generic Scout Exposition Big Base Drum Marching Band picture


1976 Jockey Hollow Historical Trail Bicentennial Flag Musket Drum
$4.0
1976 Jockey Hollow Historical Trail Bicentennial Flag Musket Drum picture