Your One-Stop Source For
Music Lyrics
Bass and Guitar Tabs
and More...
Music Lyrics Bass and Guitar Tabs

 

The Tabs Are Below

Learn To Read Tab
Chords Handbook
Corrections & Additions
Get Official Tab
Offspring tabs @ 911Tabs

Offspring - All Along

Submitted By: hoobastank_182__

EMail: no_parking182@hotmail.com

 

 

Standard Tuning: E A D G

 

Intro:

G|--------------------------------------------------|

D|--------------------------------------------------|

A|--77-77777-55-5---------------3-3/10-10-10-10-----|

E|----------------33-3-55-55555---------------------|

 

Verse:

G|--------------------------------------------------|

D|--------------------------------------------------|

A|--77777777-55555555----------3333-----------------|

E|--------------------55555555------3333------------|

 

G|--------------------------------------------------|

D|--------------------------------------------------|

A|--77777777-55555555----------3-3/10-10-10-10------|

E|--------------------55555555----------------------|

 

Chorus:

G|--------------------------------------------------|

D|--------------------------------------------------|

A|--77777777-55555555-00000000-3333/10-10-10-10-----|

E|--------------------------------------------------|

 

Bridge:

G|--------------------------------------------------|

D|--------------------------------------------------|

A|--777-5-7-----55-5---------------3-3/10-10-10-10--|

E|----------0-2------33-3-55-55555------------------|

 

Outro:

G|--------------------------------------------------|

D|--------------------------------------------------|

A|--0~-33/10-10-7-----------------------------------|

E|--------------------------------------------------|

 

 

Return to my to my Offspring bass tabs page

The Tablature is Copyright its respective owners.

Sign Up For My Newsletter
Subscribe | Unsubscribe

Site Map | Disclaimer | Privacy Policy | Media Kit | Submissions/Corrections

Website © 2000-2014 mattsmusicpage.com. All rights reserved.

Get our toolbar!