Your One-Stop Source For
Music Lyrics
Bass and Guitar Tabs
and More...
Music Lyrics Bass and Guitar Tabs

 

The Tabs Are Below

Learn To Read Tab
Chords Handbook
Corrections & Additions
Get Official Tab
Offspring tabs @ 911Tabs

Date: Thurs, July 19 2001

From: Peter Ferragine (pistol__@hotmail.com)

Site: www.geocities.com/SunsetStrip/7280

Group: Offspring

Album: want you bad single (import)

Released: 2000 columbia records

Track:

Title: 80 times

 

/ \ - slide

pm - palm mute

 

 

intro/riff - the chords are played by one guitar, the notes are played by the other

 

|-------------------------------|

|-------------------------------|

|-12-12/14-15-12-10-10/12-13-10-|

|-12-------------10-------------|

|-10--------------8-------------|

|-------------------------------|

 

verse

pm__________| |___________|

|---------------------------------------------|

|---------------------------------------------|

|---------------------------------------------|

|-5-5-5-5-5-5-5-5-7-8-5-3-3-3-3-3-3-3-3-5-6-3-|

|-5-5-5-5-5-5-5-5-7-8-5-3-3-3-3-3-3-3-3-5-6-3-|

|-3-3-3-3-3-3-3-3-5-6-3-1-1-1-1-1-1-1-1-3-4-1-|

 

chorus

 

|----------------------------------------------------------------------------------|

|----------------------------------------------------------------------------------|

|-------------5-5-5-5-5-5-------------7-7-5-4----------------5-5-5-5-5-5-7-7-7-7-7-|

|-7-7-7-7-7-7-5-5-5-5-5-5-7-7-7-7-7-7-7-7-5-4-5--7-7-7-7-7-7-5-5-5-5-5-5-7-7-7-7-7-|

|-7-7-7-7-7-7-3-3-3-3-3-3-7-7-7-7-7-7-5-5-3-2-5--7-7-7-7-7-7-3-3-3-3-3-3-5-5-5-5-5-|

|-5-5-5-5-5-5-------------5-5-5-5-5-5---------3--5-5-5-5-5-5-----------------------|

 

played behind solo

 

|-----------------------|

|-----------------------|

|-7-7-7-7-7-7-7-7-9-9---|

|-7-7-7-7-7-7-7-7-9-9-7-|

|-5-5-5-5-5-5-5-5-7-7-7-|

|---------------------5-|

 

lyrics

 

80 times was all it took for him he has no more tries

no one seems to care too much for him

you can see it in his eyes

drive down the street that he is on

don’t look his way

you keep going on and on and on

but you can’t hear him say

help help

help me

help help

 

 

Return to my to my Offspring tabs page

The Tablature is Copyright its respective owners.

Sign Up For My Newsletter
Subscribe | Unsubscribe

Site Map | Disclaimer | Privacy Policy | Media Kit | Submissions/Corrections

Website © 2000-2014 mattsmusicpage.com. All rights reserved.

Legal & DMCA: Matt's Music Page has been providing lyrics and tabs in a legal way, paying royalties each year to a few organizations. Then, all lyrics and tabs were removed from the site. Now, there's a new owner to the site, which purchased it August 26, 2014, and he is in negotiation to obtain licensing from BMI at the moment. If you have a specific DMCA request -- please do not hesitate to contact me via the contact button on top. I will do my very best to keep this site fully legal.

Get our toolbar!